Blink 182 - Wrecked Him Chords & Tabs

 

Wrecked Him Chords & Tabs

Blink 182 Chords & Tabs

Version: 3 Type: Tab 0 ratings
1 star 2 stars 3 stars 4 stars 5 stars
comments

Wrecked Him Tab

BAND: BLINK 182
SONG: WRECKED HIM
GUITARIST: THOMAS MATHEW DELONGE
ALBUM: THEY CAME TO CONQUER YOUR ANUS
TABBER: STEVEN (BUT WHAT ABOUT MY NEEDS) MARTINEZ

X: DEAD NOTE
*: HARMONIC
^: PALM MUTE
~: LET RING
H: HAMMER ON
P: PULL OFF


MY BAND AND ME COVER THIS SONG AND TABED IT LIKE THIS. I JUST THOUGHT ID POST IT
AFTER THIS REALLY LONG TIME. JUST TO POST A SONG BY THE BAND THAT CHANGED MY
LIFE, THIS IS ONE OF THEIR GREATEST SONGS 


INTRO                                                         
E|--------------------------------------------------------|
B|--------------------------------------------------------|
G|-----777-666------666-777------777-666-------666-777----|
D|--------------------------------------------------------|
A|-44-----------55-----------77-----------55--------------|
E|--------------------------------------------------------|
 

   PLAYED BEHIND INTRO
E|------------------------------------------|
B|------------------------------------------|
G|-7-7-7-7----------------------------------|
D|-7-7-7-7-x-2-222-2---7-777-7-x--5-55-5----|
A|-5-5-5-5-x-2-222-2---7-777-7-x--5-55-5----|
E|---------x-0-000-0---5-555-5-x--3-33-3----|


    VERSE:
E|-----------------------------------------|
B|-----------------------------------------|
G|-----------------------------------------|
D|4-444-4-x-5-5555-xx-7-7777--x--5-5555----|
A|5-555-5-x-5-5555-xx-7-7777--x--5-5555----|
E|0-0000--x-3-333--xx-5-555-5-x--3-33-3-3--|

CHORUS:

E|---------------------------------------|
B|---------------------------------------|
G|-7-777-7-------------------------------|
D|-7-777-7--22222--55555-X--7---------7--|
A|-5-555-5--22222--55555-X--7---------7--|
E|--------  00000--33333-X--5*5-*5-*5-5--|


     2ND VERSE  (FIRST PART OF THE LONG VERSE)
E|-------------------------------------------|
B|-------------------------------------------|
G|-------------------------------------------|
D|5-----4-----5-----5----7---------5----5----|
A|4--55---5---5----------7----7----5---------|
E|0-----------3---33--3--5-55-- 5--3--33---3-|
     ^^   ^       ^^  ^    ^^   ^     ^^   ^


    TOM PLAYS THIS AFTER THE 2ND VERSE
E|-------------------------|
B|-------------------------|
G|-------------------------|
D|-4444--5555-7777--5555---|
A|-5555--5555-7777--5555---|
E|-0000-33333-55555-33333--|

[ Tab from: http://www.guitartabs.cc/tabs/b/blink_182/wrecked_him_tab_ver_3.html ]
   THIS IS PLAYED, THEN GOS INTO THE LITTLE BASS & DRUM SOLO
E|--------------|
B|--------------|
G|-7~~~~--------|
D|-7~~~~--------|
A|-5~~~~~-------|
E|------------- |

THIS IS PLAYED BEHIND THE SOLO
E|-----------------------------------|
B|-----------------------------------|
G|-----------------------------------|
D|-7-777-7---4-444-4-----------------|
A|-5-555-5---2-222-2--44444---55555--|
E|-------------------22222---333333--|


THE KICK ASS SOLO:
E|-----------------------------------------|
B|-----------------------------------------|
G|-----------------------------------------|
D|-----------------------------4h5p4-------|
A|-55---5--5-4h5-55-4h5-7-5-4----------5---|
E|---------------------------------------- |
   ^^

E|-----------------------------------------|
B|-----------------------------------------|
G|-----------------------------------------|
D|-----------------------------4h5p4-------|
A|-55---5--5-4h5-55-4h5-7-5-4----------5---|
E|--------------------------------------- |
   ^^

    X1                                                     X2
E|---------------------|--------------------|
B|---------------------|--------------------|
G|-7p67p69p6-7p6-7p6-|-7p69p67p67p6----|
D|---------------------|--------------------|
A|---------------------|--------------------|
E|------------------------------------------|


E|-------------------------------------|
B|-------------------------------------|
G|-------------------------------------|
D|-7-7-5-4-5-7-5p4-5p4-----------------|
A|----------------------5~~~~/////-----|
E|------------------------------------ |


   <<<<<<<>>>>>
E|-------------x-------------------|
B|-----------x---------------------|
G|--------x------------------------|
D|------x--------------------------|
A|---x---------------------- ------|
E|--x---------------------------- |
   AFTER THE SOLO TOM DOES A POWER CHORD RIFF
E|------------------------------|
B|------------------------------|
G|------------------------------|
D|5-5555---5555---7-7777-5-555--|
A|4-4444---5555---7-7777-5-555--|
E|0-0000---3333---5-5555-3-33 3-|

   END ON
E|------------------|
B|------------------|
G|-7~~~~~~~~~-------|
D|-7~~~~~~~~~-------|
A|-5~~~~~~~~~-------|
E|----------------- |


THERE YOU GO HOPE YOU LIKE IT, IF ANY QUESTIONS OR PROBLEMS EMAIL ME AT
(Punk Living57@aol.com)
Comments