Blink 182 - Wrecked Him Chords & Tabs

 

Wrecked Him Chords & Tabs

Blink 182 Chords & Tabs

Version: 1 Type: Tab 0 ratings
1 star 2 stars 3 stars 4 stars 5 stars
comments

Wrecked Him Tab

   
"Wrecked Him"
 blink 182
 Dick Lips single, They Came To Conquer Uranus 7"
Chords
e---------------
b---------------
g--7------------
d--7--5--7--2---
a--5--5--7--2---
e-----3--5--0---
  D5 G5 A5 Em

Intro: starts with bass, then this riff:
e--------------------------------------------------------------------
b--------------------------------------------------------------------
g-------7-7-7-6-6-------6-6-6-7-7-------7-7-7-6-6--------6-6-6-7-7---
d-0-0-0-----------5-5-5-----------7-7-7------------5-5-5-------------
a--------------------------------------------------------------------
e--------------------------------------------------------------------

Verse: D5 G5 A5 G5
Chorus: D5 Em G5 A5
[ Tab from: http://www.guitartabs.cc/tabs/b/blink_182/wrecked_him_tab.html ]
Solo:(this is what I play) base chords are D5 G5 A5 G5
e----------------------------------------------------------
b----------------------------------------------------------
g----------------------------------/12-12-11-11------------
d-----------5-5-4------7-7-7-6-6-7-------------12-12-11----
a-5-5-5-4-5-------5-4--------------------------------------
e----------------------------------------------------------

e-10-10-10-10-9-9-9---------------------------------------------
b-------------------8-8-8-12-12-10-10-8-8--10-10-10-9-9-10-10---
g---------------------------------------------------------------
d---------------------------------------------------------------
a---------------------------------------------------------------
e---------------------------------------------------------------

e--------------------------
b--------------------------
g-12-12-11-12-14-14-12--7--
d--------------------------
a--------------------------
e--------------------------
Tab:
Matt Nielsen punker 164@hotmail.com

Comments