Blink 182 - Whats My Age Again Chords & Tabs

 

Whats My Age Again Chords & Tabs

Blink 182 Chords & Tabs

Version: 8 Type: Tab 0 ratings
1 star 2 stars 3 stars 4 stars 5 stars
comments

Whats My Age Again Tab

Song:What's My Age Again
Artist: Blink 182

[ Tab from: http://www.guitartabs.cc/tabs/b/blink_182/whats_my_age_again_tab_ver_8.html ]
 ------------------9---------11----------|
 ---------9------------------------------|
 -9--------------------------------------|a buncha times
 --11--11--11--11----11--11----11--11----|
 ----11------11--------11--------11------|
 ----------------------------------------|


                                or


 -----------------------11-------13-------|
 -------------11--------------------------|
 -11--------------------------------------|
 ---13---13-----13--13----13--13---13--13-|
 -----13----------13--------13-------13---|
 -----------------------------------------|
Comments