Blink 182 - Whats My Age Again Chords & Tabs

 

Whats My Age Again Chords & Tabs

Blink 182 Chords & Tabs

Version: 4 Type: Tab 0 ratings
1 star 2 stars 3 stars 4 stars 5 stars
comments

Whats My Age Again Tab

   
ARTIST:Blink 182
TITLE: What's My Age Again
TABBED BY: Jerrybean@hotmail.com


STANDARD TUNING

This is a great song.  The tab is laid out in the correct order of the song.


*Intro & Verse 1

e---------------------------------------------------------------
B---------11-------------11-------------11--------------11------
G-----11------11-----11------11-----11------11------11------11--
D--9------------------------------------------------------------
A-----------------9---------------------------------------------
E--------------------------------9--------------11--------------
(Repeat until Chorus)


*Chorus

   F#           C#        D#	       B
e--------------------------------------------------------------
B--------------------------------------------------------------
G---------------6--6--6---8--8--8--8---------------------------
D--4--4--4--4---6--6--6---8--8--8--8---9--9--9--9--------------
A--4--4--4--4---4--4--4---6--6--6--6---9--9--9--9--------------
E--2--2--2--2--------------------------7--7--7--7--------------
(Repeat) NOTE: After 4th repeat go back to D#


* Verse 2
[ Tab from: http://www.guitartabs.cc/tabs/b/blink_182/whats_my_age_again_tab_ver_4.html ]
   B            F#	     C#  	  D#
e--------------------------------------------------------------
B--------------------------------------------------------------
G--4--4--4--4----------------6--6--6--6---8--8--8--8-----------
D--4--4--4--4---4--4--4--4---6--6--6--6---8--8--8--8-----------
A--2--2--2--2---4--4--4--4---4--4--4--4---6--6--6--6-----------
E---------------2--2--2--2-------------------------------------
(Repeat until 2nd chorus)


*Chorus

   F#           C#        D#	       B
e--------------------------------------------------------------
B--------------------------------------------------------------
G---------------6--6--6---8--8--8--8---------------------------
D--4--4--4--4---6--6--6---8--8--8--8---9--9--9--9--------------
A--4--4--4--4---4--4--4---6--6--6--6---9--9--9--9--------------
E--2--2--2--2--------------------------7--7--7--7--------------


*Guitar Break

Part 1:			  	  Part 2:

e-----------------------    |     e-------------------
B--11---------11--------    |     B-------------------
G------11---------11----    |     G-------------------
D-----------------------    |     D-------------------
A----------9------------    |     A--9--9--9--11h13---
E-----------------------    |     E-------------------
Repeat 4 times			  Repeat 4 times


Part 3:
e----------------------
B--------------7-------
G----------------------
D-----8-----8----------
A--9-----9-------------


*Chorus

   F#           C#        D#	       B
e--------------------------------------------------------------
B--------------------------------------------------------------
G---------------6--6--6---8--8--8--8---------------------------
D--4--4--4--4---6--6--6---8--8--8--8---9--9--9--9--------------
A--4--4--4--4---4--4--4---6--6--6--6---9--9--9--9--------------
E--2--2--2--2--------------------------7--7--7--7--------------
Repeat 12 times
End on F#
Comments