Blink 182 - Whats My Age Again Chords & Tabs

 

Whats My Age Again Chords & Tabs

Blink 182 Chords & Tabs

Version: 3 Type: Tab 10 ratings
1 star 2 stars 3 stars 4 stars 5 stars
comments

Whats My Age Again Tab

Artist: Blink 182
Song: Whats my age again
Tabbed by: bigbigmarmar@hotmail.com

standard tuning, EADGBE

Yeh the difference in this one which im doing is that i saw tom
delogne play it live and he didnt play the song down at the 11th fret,
doesnt really matter which eva way u play it really, this is just wat
i found out, so yeh i tabbed this out


Intro and verse 1

e---------6----------6----------6----------6------------------------
B-------7---7------7---7------7---7------7---7----------------------
G---4---------------------------------------------------------------
D---------------4---------------------------------------------------
A--------------------------4----------6-----------------------------
E-------------------------------------------------------------------


Chorus                                when it sings "whats my age again"

e------------------------------------|-------------------------------
B------------------------------------|-------------------------------
G-----------6-6-----8-8-----4-4-4-4--|---8--------6------------------
D---4-------6-6-----8-8-----4-4-4-4--|---8--x-8---6--x-8-------------
A---4-------4-4-----6-6-----2-2-2-2--|---6--------4------------------
E---2--------------------------------|-------------------------------


back to the intro once then                 at end of verse 2
[ Tab from: http://www.guitartabs.cc/tabs/b/blink_182/whats_my_age_again_tab_ver_3.html ]
e---------------------------------------|----------------------------
B---------------------------------------|----------------------------
G---4-4-4-4-----------6-6-6-6--8-8-8-8--|--6--------4----------------
D---4-4-4-4--4-4-4-4--6-6-6-6--8-8-8-8--|--6--x-8---4--x-8-----------
A---2-2-2-2--4-4-4-4--4-4-4-4--6-6-6-6--|--4--------2----------------
E------------2-2-2-2--------------------|----------------------------
    P.M--------------------------------    P.M      P.M


Then play the chorus

Solo (part 1)

e--------------------------------------------------------------------
B------11--------11---------------11-----11--------------------------
G---8-----11--------11---------11-----------11-----------------------
D----------------------9-----9-----------------9---------------------
A--------------------------------------------------------------------
E--------------------------------------------------------------------

(Part 2)

e--------------------------------------------------------------------
B--------------------------------------------------------------------
G--------------------------------------------------------------------
D-----------8h9p8-----------8h9p8----------8h9p8----------8h9--------
A---9-9-9-9---------9-9-9-9--------9-9-9-9--------9-9-9-9------------
E--------------------------------------------------------------------

(Part 3)

e---------------------------------------------------------------------
B---------------------------------------------------------------------
G---------11-------------11-------------11-------------11-------------
D-----8---------8----8---------8----8---------8----8---------8--------
A---9---9-----9----9---9-----9----9---9-----9----9---9-----9----------
E---------------------------------------------------------------------

and finally go bak and play the chorus 3 more times and finish on a
e-----------------
B-----------------
G-----------------
D--4--------------
A--4--------------
E--2-------------- and hold it


and thats the song
so yeh if u find this pretty dodgy or anything im sorry cause this is
my first tab and it is 4 in the morning and i duno wat im doing so if
u liek this tab, enjoy
if theres any comments or anything my emails up the top

Comments