Blink 182 - Whats My Age Again Chords & Tabs

 

Whats My Age Again Chords & Tabs

Blink 182 Chords & Tabs

Version: 14 Type: Tab 0 ratings
1 star 2 stars 3 stars 4 stars 5 stars
comments

Whats My Age Again Tab

Blink 182, What's My Age Again?.
Tabbed by Chris Edwards, cedwards_4@hotmail.com.
  

    Intro/Verse                                                        

E|---------------------------------------------
B|----11------11------11-------11--------------
G|--11--11--11--11--11--11---11--11------------
D|-9-------------------------------------------
A|---------9-----------------------------------
E|-----------------9-------11------------------
                                                                       


      Chorus                                                           
[ Tab from: http://www.guitartabs.cc/tabs/b/blink_182/whats_my_age_again_tab_ver_14.html ]
E--------------------------------------------------
B--------------------------------------------------
G--------6-6--8-8----------------------------------
D-----4--6-6--8-8--9-9-----------------------------
A-----4--4-4--6-6--9-9-----------------------------
E-----2------------7-7-----------------------------
                                                                       


(At the end of the chorus play this riff below)
                                                                       

E--------------------------------------------------
B--------------------------------------------------
G--------6-6--8-8-8-8-8-8-8-8--6-6-6-6-6-6-6-6-----
D-----4--6-6--8-8-8-8-8-8-8-8--6-6-6-6-6-6-6-6-----
A-----4--4-4--6-6-6-6-6-6-6-6--4-4-4-4-4-4-4-4-----
E-----2--------------------------------------------

   
:: Ultimate Guitar Archive :: 
http://www.ultimate-guitar.com 

Comments