Blink 182 - Whats My Age Again Chords & Tabs

 

Whats My Age Again Chords & Tabs

Blink 182 Chords & Tabs

Version: 13 Type: Tab 0 ratings
1 star 2 stars 3 stars 4 stars 5 stars
comments

Whats My Age Again Tab

Blink 182,Whats My age again.
 Tabbed by Zach,Zdtrip44@AOL.com.
  
Riff 1
(00:00)
Intro/Verse 1 (Clean)

E-----------------------------------------------------
B-----11---------11---------11--------11--------------
G---11--11-----11--11-----11--11----11--11------------
D--9--------------------------------------------------
A-------------9---------------------------------------
E------------------------9---------11-----------------

Riff 2
(00:25)
Chorus(dist)
E-----------------------------------------------------
B-----------------------------------------------------
G------66--88--4444--------66--88--4444---------------
D---4--66--88--4444-----4--66--88--4444---------------
A---4--44--66--2222-----4--44--66--2222---------------

E-----------------------------------------------------
B-----------------------------------------------------
G------66--88--4444--------66--88--4444---------------
D---4--66--88--4444-----4--66--88--4444---------------
A---4--44--66--2222-----4--44--66--2222---------------
E---2-------------------2-----------------------------
E---2-------------------2-----------------------------

E-----------------------------------------------------
B-----------------------------------------------------
G---6666666-------------------------------------------
D---6666666-------------------------------------------
A---4444444-----2-----(2)------(2)--------------------
E-----------------------------------------------------

Riff 3
(00:42)
Verse2 (dist/Palm Muted)

E-----------------------------------------------------
B-----------------------------------------------------
G-----------------------------------------------------
D---4444-----------6666---8888-----4444---------------
A---2222----4444---4444---6666-----2222---4444--------
E-----------2222--------------------------2222--------

E-----------------------------------------------------
B-----------------------------------------------------
G-----------------------------------------------------
D--6666---8888-----4444----------6666--8888-----------
A--4444---6666-----2222---4444---4444--6666-----------
E-------------------------2222------------------------

E-----------------------------------------------------
B-----------------------------------------------------
G-----------------------------------------------------
D-4444----------6666666---4444444---------------------
A-2222---4444---4444444---2222222---------------------
E--------2222-----------------------------------------

Riff 4
(00:56)
Chorus (dist)
E-----------------------------------------------------
B-----------------------------------------------------
G------66--88--4444--------66--88--4444---------------
D---4--66--88--4444-----4--66--88--4444---------------
A---4--44--66--2222-----4--44--66--2222---------------
[ Tab from: http://www.guitartabs.cc/tabs/b/blink_182/whats_my_age_again_tab_ver_13.html ]
E-----------------------------------------------------
B-----------------------------------------------------
G------66--88--4444--------66--88--4444---------------
D---4--66--88--4444-----4--66--88--4444---------------
A---4--44--66--2222-----4--44--66--2222---------------
E---2-------------------2-----------------------------
E---2-------------------2-----------------------------

E-----------------------------------------------------
B-----------------------------------------------------
G---6666666-------------------------------------------
D---6666666-------------------------------------------
A---4444444-----2-----(2)------(2)--------------------
E-----------------------------------------------------

Riff 5
(1:10)
solo(clean)
E-----------------------------------------------------
B--11------11------11------11-------------------------
G-----11-----11-------11-----11-------3^4-------3^4---
D---------------9----------------4444------4444-------
A-----------------------------------------------------
E-----------------------------------------------------

E----------------------------2--------2---------2-----
B-----------------------------------------------------
G-------3^4--------3^4-----3-----3---3-3----3--3-3----
D--4444-------4444--------4-----4---4---4--4--4---4---
A-----------------------------------------------------
E-----------------------------------------------------


E------------2--------2---------2----2----------------
B-----------------------------------------------------
G---3------3----3----3----2----3----3-----3-----------
D--4--4---4----4---44----4---44----4--4--4---4--------
A-----------------------------------------------------
E-----------------------------------------------------

Riff 6
Chorus(dist)
E-----------------------------------------------------
B-----------------------------------------------------
G------66--88--4444--------66--88--4444---------------
D---4--66--88--4444-----4--66--88--4444---------------
A---4--44--66--2222-----4--44--66--2222---------------

E-----------------------------------------------------
B-----------------------------------------------------
G------66--88--4444--------66--88--4444---------------
D---4--66--88--4444-----4--66--88--4444---------------
A---4--44--66--2222-----4--44--66--2222---------------
E---2-------------------2-----------------------------
E---2-------------------2-----------------------------

E-----------------------------------------------------
B-----------------------------------------------------
G---6666666-------------------------------------------
D---6666666-------------------------------------------
A---4444444-----2-----(2)------(2)--------------------
E-----------------------------------------------------






 
:: Ultimate Guitar Archive :: 
http://www.ultimate-guitar.com 



Comments