Blink 182 - Whats My Age Again Chords & Tabs

 

Whats My Age Again Chords & Tabs

Blink 182 Chords & Tabs

Version: 12 Type: Tab 0 ratings
1 star 2 stars 3 stars 4 stars 5 stars
comments

Whats My Age Again Tab

Blink182, What`s My Age Again.
 Tabbed by Bryan S., Spedmonkeydude14@aol.com.
  
O.k. I have seen sooo many tabs out there and they`re all so wrong its sickening. I`m gonna show u how to do it right.

------------6---------------------6-------------------
--------7-------7------------7---------7--------------
-----4------------------------------------------------
------------------------4-----------------------------
------------------------------------------------------
------------------------------------------------------
[ Tab from: http://www.guitartabs.cc/tabs/b/blink_182/whats_my_age_again_tab_ver_12.html ]
----------------6---------------------------6---------
------------7-------7-----------------7-----------7---
------------------------------------------------------
------------------------------------------------------
-------4-----------------------6----------------------
------------------------------------------------------

-----------------------------------------
-----------------------------------------
-----6-6--8-8--4-4-----------------------  repeat 3x
--4--6-6--8-8--4-4-----------------------
--4--4-4--6-6--2-2-----------------------
--2--------------------------------------

-----------------------------------------
-----------------------------------------
-----6-6--88888888--66666666--4----------
--4--6-6--88888888--66666666--4----------
--4--4-4--66666666--44444444--2----------
--2-------------------------------------- 
:: Ultimate Guitar Archive :: 
http://www.ultimate-guitar.com 



Comments