Blink 182 - Whats My Age Again Chords & Tabs

 

Whats My Age Again Chords & Tabs

Blink 182 Chords & Tabs

Version: 11 Type: Tab 0 ratings
1 star 2 stars 3 stars 4 stars 5 stars
comments

Whats My Age Again Tab

Blink 182, What's My Age Again.
 Tabbed by Matt, POSER1712@aol.com.
  
This tab is the real deal, I watched Tom play it so it
has to be right.
Play this with a Capo (Clamp thing) on fret 2.

intro: Play Fast!
------------------------------------------
-----13------13------13------13-----------
-------13------13------13------13---------
--11-------------------------------------- x8
----------11------------------------------
------------------11------13--------------
[ Tab from: http://www.guitartabs.cc/tabs/b/blink_182/whats_my_age_again_tab_ver_11.html ]
Chorus:
------------------------------------------
------------------------------------------
------8-8---10-10---4-4-4-4---------------
--6---8-8---10-10---4-4-4-4--------------- x3
--6---6-6----8--8---6-6-6-6---------------
--4---------------------------------------

------------------------------------------
------------------------------------------
--10-10-10-10-10-10-10---8-8-8-8-8--------
--10-10-10-10-10-10-10---8-8-8-8-8--------
---8--8--8--8--8--8--8---6-6-6-6-6--------
------------------------------------------

That's mainly it. Try it and if there is any problems
with it E-mail me: POSER1712@aol.com

 
:: Ultimate Guitar Archive :: 
http://www.ultimate-guitar.com 



Comments