Blink 182 - Whats My Age Again Live Chords & Tabs

 

Whats My Age Again Live Chords & Tabs

Blink 182 Chords & Tabs

Version: 4 Type: Tab 0 ratings
1 star 2 stars 3 stars 4 stars 5 stars
comments

Whats My Age Again Live Tab

Please Rate This Tab
Whats My Age Again Or Wheres My Asian Friend
Tabbed Live Jeremy Antoine (imhot_10@hotmail.com)
Tom Uses A CAPO ON THE SECOND FRET
INTRO:Use A Flanger if you got one on the intro
E--------------------------------------------------------------------------|
B----------------13-------------13-------------13-------------13-----------|
G------------13-----13------13-----13------13-----13------13-----13--------|
D--------11----------------------------------------------------------------|
A-----------------------11-------------------------------------------------|
E--------------------------------------11-------------13-------------------|

E----------------------------------------------|
B----------------------------------------------|
G---------------8--8-----10--10------6--6------|
D--------6------8--8-----10--10------6--6------|
A--------6------6--6------8---8------4--4------|
E--------4-------------------------------------|

E-----------------------------------------------------------|
B-----------------------------------------------------------|
G---------------8--8------10----------8----------6----------|
D--------6------8--8------10-8x-------8-8x-------6----------|
A--------6------6--8-------8----------6----------4----------|
E--------4--------------------------------------------------|
[ Tab from: http://www.guitartabs.cc/tabs/b/blink_182/whats_my_age_again_live_tab_ver_4.html ]
E--------------------------------------------------------------------|
B----------------13-------------13-------------13-------------13-----|
G------------13-----13------13-----13------13-----13------13-----13--|
D--------11----------------------------------------------------------|
A-----------------------11-------------------------------------------|
E--------------------------------------11-------------13-------------|

(Palm Mute) hit each 4 times
E-------------------------------------------------|
B-------------------------------------------------|
G------------------8---------10---------6---------|
D--------6---------8-4x------10-4x------6-4x------|
A--------6-4x------6----------8---------4---------|
E--------4----------------------------------------|

(Palm Mute) 4 time and 8 times you hit it
E--------------------------------------------|
B--------------------------------------------|
G-------------------8----------6-------------|
D--------6----------8-8x-------6-8x----------|
A--------6-4x-------6----------4-------------|
E--------4-----------------------------------|


SOLO
E---------------------------------------------------------|
B---------------------------------------------------------|
G---------------------------------------------------------|
D-----------------10h11h10h11------------10h11h10---------|
A-------11-11-11---------------11-11-11------------h11----|
E---------------------------------------------------------|

E-------------------------------------------------------|
B-------------------------------------------------------|
G---------------13-------------------------13-----------|
D-----------10-------------10--------10--------7times---|
A-------11----------------------11----------------------|
E-------------------------------------------------------|

Guitartabs.cc
Comments