Blink 182 - Whats My Age Again Live Chords & Tabs

 

Whats My Age Again Live Chords & Tabs

Blink 182 Chords & Tabs

Version: 1 Type: Bass Tab 0 ratings
1 star 2 stars 3 stars 4 stars 5 stars
comments

Whats My Age Again Live Bass Tab

Artist: Blink 182
Song: What's My Age Again? (live version)
Tabbed by: Muzz

This is the live version, it is played higher than the album
version.

Guitar intro

Verse:
G:---------------------------------|
D:---------------------------------|X5 then play:
A:-4-4-4-4---------6-6-6-6-8-8-8-8-|
E:---------4-4-4-4-----------------|

G:-------------------------------------------------|
D:-------------------------------------------------|
A:-4-4-4-4---------6-6-6-6-6-6-6-6-4-4-4-4-4-4-4-4-|
E:---------4-4-4-4---------------------------------|

Chorus:
G:---------------------|
D:---------------------|X3 then play:
A:---6-6-8-8-4-4-4-4-4-|
E:-4-------------------|

G:------------------------------------------|
D:------------------------------------------|
A:---6-6-8-8-8-8-8-8-8-8-6-6-6-6-6-6-6-6-4>-|
E:-4----------------------------------------|
[ Tab from: http://www.guitartabs.cc/tabs/b/blink_182/whats_my_age_again_live_btab.html ]
Verse:
G:---------------------------------|
D:---------------------------------|X3 then play
A:-4-4-4-4---------6-6-6-6-8-8-8-8-|
E:---------4-4-4-4-----------------|

G:-------------------------------------------------|
D:-------------------------------------------------|
A:-4-4-4-4---------6-6-6-6-6-6-6-6-4-4-4-4-4-4-4-4-|
E:---------4-4-4-4---------------------------------|

Chorus

Bridge:
G:------------------------------------------|
A:--10----8----6----8----10----8----6----8--|
D:-8--8--6-6--4-4--6-6--8--8--6-6--4-4--6-6-|
E:------------------------------------------|

G:------------------------------------------|
D:--10----8----6----8----10----8----6----8--|
A:-8--8--6-6--4-4--6-6--8--8--6-6--4-4--6-6-|
E:------------------------------------------|

Chorus X2 then play:

G:---------------------------------------------------|
D:---6-6-8-8-8-8-8-8-8-8-6-6-6-6-6-6-6-6--4>---------|
A:-4----------------------------------------------4>-|
E:---------------------------------------------------|

This sounds right when you play along with it on the Mark,
Tom and Travis show.
Comments