Blink 182 - Whats My Age Again Chords & Tabs

 

Whats My Age Again Chords & Tabs

Blink 182 Chords & Tabs

Version: 8 Type: Bass Tab 0 ratings
1 star 2 stars 3 stars 4 stars 5 stars
comments

Whats My Age Again Bass Tab

Norman Kobylka
Blink 182
What's My Age Again?
Bass

RIFF #1
G:---------------------------------------------
D:---------------------------------------------
A:-2222------4444-6666-------------------------
E:------2222-----------------------------------

RIFF #2
G:---------------------------------------------
D:---------------------------------------------
A:-2222------44444444-22222222-----------------
E:------2222-----------------------------------

RIFF #3 (Chorus)
G:--------------------------------------------
D:--------------------------------------------
A:---44-66-22---------------------------------
E:-2------------------------------------------
[ Tab from: http://www.guitartabs.cc/tabs/b/blink_182/whats_my_age_again_btab_ver_8.html ]
RIFF #4
G:--------------------------------------------
D:--------------------------------------------
A:---44-66666666-44444444---------------------
E:-2------------------------------------------

RIFF #5
G:---------------------------------------------
D:---------------------------------------------
A:-2222------2222-4444-------------------------
E:------2222-----------------------------------

*Order*
Riff 1 x 5
Riff 2 x 1
Riff 3 x 3
Riff 4 x 1
Break
Riff 1 x 3
Riff 2 x 1
Riff 3 x 3
Riff 4 x 1
Riff 5 x 4
Riff 3 x 3
Riff 4 x 1
Riff 3 x 3
Riff 4 x 1
Riff 3 x 3
Riff 4 x 1

This is the right tab. All the other What's My Age Again bass tabs are wrong. 
Have fun!
Comments