Blink 182 - Whats My Age Again Chords & Tabs

 

Whats My Age Again Chords & Tabs

Blink 182 Chords & Tabs

Version: 6 Type: Bass Tab 0 ratings
1 star 2 stars 3 stars 4 stars 5 stars
comments

Whats My Age Again Bass Tab

four measure guitar intro before bass comes in

intro
g---------------------------------
d---------------------------------
a-2-2-2-2---------4-4-4-4-6-6-6-6-
e---------2-2-2-2-----------------

you do that several times the it changes some to

g-----------------------------------------------------
d-----------------------------------------------------
a-2-2-2-2---------4-4-4-4-4-4-4-4-2-2-2-2-2-2-2-2-----
e---------2-2-2-2-------------------------------------

chours 

to make it make more sense the second six on beat one of the second measure (two measures are here) 

g----------------------
d-4--------------------
a---4-4-6-6-2-2-2-2-4--
e----------------------

end of chours 

g-----------------------------------------
d-4---------------------------------------
a---4-4-6-6-6-6-6-6-6-6-6-4-4-4-4-4-4-4-4-
e-----------------------------------------
[ Tab from: http://www.guitartabs.cc/tabs/b/blink_182/whats_my_age_again_btab_ver_6.html ]
then guitar goes back to intro you hold this

g-------
d-4-----
a-2-----
e-------

main thing that is different about mine is this

interlude 

all eigth notes 

g-----------------------------------
d-----8-----8---8-----6-----6---6---
a-6-6---6-6---6---4-4---4-4---4-----
e-----------------------------------

g-----------------------------------
d-----4-----4---4-----6-----6---6---
a-2-2---2-2---2---4-4---4-4---4-----
e-----------------------------------

the rest is already here (you have to figure out what goes where and when) but you end on this (its already here too, but just to direct you a little)

g----
d-4--
a-2--
e----

again have fun playing and i hope this isnt confusing to figure out which part goes 
where, but that should be easy, the live version is just played two frets toward the 
bridge (or bottom of your bass if you dont know where the bridge is) for example a 4 
would be a 6.
Comments