Blink 182 - Whats My Age Again Chords & Tabs

 

Whats My Age Again Chords & Tabs

Blink 182 Chords & Tabs

Version: 4 Type: Bass Tab 0 ratings
1 star 2 stars 3 stars 4 stars 5 stars
comments

Whats My Age Again Bass Tab

Blink 182 - Whats my age again?.
 Tabbed by Jess I_luv_skaters_85@hotmail.com.
  
K, this is one of my 1st tabs - i aint been playin 4 long.  I fink its rite, u'll just have 2 play it and see!  plz email me if i've got any of it wrong!

Bass starts at 0:06

Intro/verse

G|--------------------------------------
D|--------------------------------------
A|-2-2-2-2---------4-4-4-4-6-6-6-6   x6
E|----------2-2-2-2-------------------

Bridge

G|----------------------------------------------------------
D|----------------------------------------------------------
A|-2-2-2-2---------4-4-4-4-4-4-4-4-6-6-6-6-6-6-6-6   x1  
E|----------2-2-2-2---------------------------------------

Chorus

G|-------------------
D|-------------------
A|---4-4-6-6-2-2--  x3
E|-2-----------------   
[ Tab from: http://www.guitartabs.cc/tabs/b/blink_182/whats_my_age_again_btab_ver_4.html ]
This comes after the chorus bit above

G|-------------------------------------------------
D|-------------------------------------------------
A|---4-4-6-6-6-6-6-6-6-6-4-4-4-4-4-4-4-4-2
E|-2-----------------------------------------------


Then verse again x3
Bridge x1
Chorus x3
Bit after chorus x1

Interlude
G-----------------------------------------------------------------------------
D------8-----8---8------6------6---6------4------4---4-----6------6---6-
A-6-6--6-6---6---4-4---4-4---4---2-2---2-2---2---4-4--4-4---4-------  x4 (I think)
E-----------------------------------------------------------------------------

Then chorus x3
Bit after chorus x1

Do the chorus/bit after it 3 times and you’re done!

 
:: Ultimate Guitar Archive :: 
http://www.ultimate-guitar.com 



Comments