Blink 182 - Whats My Age Again Chords & Tabs

 

Whats My Age Again Chords & Tabs

Blink 182 Chords & Tabs

Version: 3 Type: Bass Tab 0 ratings
1 star 2 stars 3 stars 4 stars 5 stars
comments

Whats My Age Again Bass Tab

Song:- 	    Whats My Age Again
Band:-      Blink 182
Album:-     Enema Of The State
Tabbed by:- Tim Franklin

* = 4

GUITAR RIFF x2,  then BASS INTRO:
G:-----------------		 -----------------------|
D:-----------------	    	 -----------------------|
A:-2*------4*--6*--		 -2*----4*--4*--2*--2*--|
E:-----2*---------- X5, then:    ----2*-----------------|
[ Tab from: http://www.guitartabs.cc/tabs/b/blink_182/whats_my_age_again_btab_ver_3.html ]
CHORUS:
G:------------------------------------------------------------------------------|
D:-4------------------4----------------4------------------4---------------------|
A:----4-4--6-6----2*-----4-4--6*--4*------4-4--6-6----2*-----4-4--6*-6*--4*-4*--|
E:------------------------------------------------------------------------------|

GUITAR INTRO RIFF x1, BASS REST

VERSE:
G:-----------------		 -----------------------|
D:-----------------	    	 -----------------------|
A:-2*------4*--6*--		 -2*----4*--4*--2*--2*--|
E:-----2*---------- X3, then:    ----2*-----------------|

CHORUS

BRIDGE:
G:-----------------------------------------------------------------------|
D:---------8-------8--------6-------6--------4-------4--------6-------6--|
A:--6-6-6----6-6-6----4-4-4---4-4-4----2-2-2---2-2-2----4-4-4---4-4-4----|
E:-----------------------------------------------------------------------| x4

CHORUS x2
CHORUS w/out lyrics x1
END ON:
E:-2--|
Comments