Blink 182 - Whats My Age Again Chords & Tabs

 

Whats My Age Again Chords & Tabs

Blink 182 Chords & Tabs

Version: 2 Type: Bass Tab 0 ratings
1 star 2 stars 3 stars 4 stars 5 stars
comments

Whats My Age Again Bass Tab

Hey this is a wicked song, but on bass it is easy to play.


INTRO/VERSE 1 play on third turn of toms playing                           Only a part of verse 1
G-----------------------------------
D-----------------------------------
A-2-2-2-2---------4-4-4-4--6-6-6-6--
E---------2-2-2-2-------------------
(play this through out the whole verse) 

when he says: "and thats about the time she.."
G-----------------------------------
D-----------------------------------
A--4-4-4-4-4------------------------
E-----------------------------------
[ Tab from: http://www.guitartabs.cc/tabs/b/blink_182/whats_my_age_again_btab_ver_2.html ]
CHORUS
G-----------------------------------
D-----------------------------------
A-----5-5---7-7--5-5-5-5-5----------
E---3-------------------------------
(play this until Mark says: whats my age again, whats my age again..
G-----------------------------------
D-----------------------------------
A-----5-5--7-7-7-7-7-7-7-7-5-5-5-5-3
E---3-------------------------------

VERSE 2
G---------------------------------------
D---------------------------------------
A---2-2-2-2----------4-4-4-4--6-6-6-6---
E-----------2-2-2-2---------------------
(do not palm mute, only tom does)

Repeat chorus
Interlude 
G------1h2p1----1h2p1----1h2p1----1h2p1-
D---222-----222--------222-----222------
A---------------------------------------
E---------------------------------------

second part of interlude 
G--------11-------------11-----------11------------11-----------11---
D----8----------8---8--------8---8---------8---8--------8---8--------
A--9---9------9---9---9----9---9---9-----9---9---9----9---9---9------
E--------------------------------------------------------------------
*continuation
G-----------11-----------11----
D---8---8--------8---8---------
A-9---9---9----9---9---9-------
E------------------------------

ending chorus 
just repeat chorus 3 times 
Comments