Blink 182 - Whats My Age Again Chords & Tabs

 

Whats My Age Again Chords & Tabs

Blink 182 Chords & Tabs

Version: 1 Type: Bass Tab 5 ratings
1 star 2 stars 3 stars 4 stars 5 stars
comments

Whats My Age Again Bass Tab

Band: blink 182
Song: What's My Age Again?
Album: Enema of the State
Correction by Josh Mott
Thanks to Matt Nielsen for the original tab. Im just gonna make a few small 
yet important corrections.
[ Tab from: http://www.guitartabs.cc/tabs/b/blink_182/whats_my_age_again_btab.html ]
Intro/Verse 1                           Only a part of verse 1
G:-----------------------------------*--------------------------------
D:-----------------------------------*--------------------------------
A:-2-2-2-2---------4-4-4-4--6-6-6-6--*-4-4-4-4-4-4-4-4--6-6-6-6-6-6-6-
E:---------2-2-2-2-------------------*--------------------------------
Only a part of verse 2
G:-----------------------------------
D:-----------------------------------
A:-4-4-4-4-4-4-4-4--2-2-2-2-2-2-2-2--
E:-----------------------------------
Chorus: After stars is just part of Chorus 1
G:-------------------------------------------------------------------
D:-------------------------------------------------------------------
A:---4-4--6-6--222----4-4--6-6--222---4-4--6-6--222---4---6-6-6-6-6-6-6-6
E:-2---------------2----------------2----------------2------------------

G:---------------------*
D:---------------------
A:-4-4-4-4-4-4-4-4--2--
E:---------------------

Bridge: (this is my biggest correction)
G:------------------------------------
D:-----8--8-----6--6------4--4-----6--6-------
A:-666--6---444--4----222--2----444----4----
E:-------------------------------------------
Listen for the swing

Last Chorus:
G:----------------------------------------------------------
D:-------------------------------------------------------
A:-----4-4--6-6--2-----4-4--6-6--2----4-4--6-6-6-6-6-6-6-6--
E:--2--------------2----------------2--------------------------

G:-----------------------
D:-----------------------
A:-4-4-4-4-4-4-4-4--2~---
E:-----------------------

TAB: Matt Nielsen zorg500@hotmail.com

Comments