Blink 182 - What Went Wrong Chords & Tabs

 

What Went Wrong Chords & Tabs

Blink 182 Chords & Tabs

Version: 6 Type: Tab 0 ratings
1 star 2 stars 3 stars 4 stars 5 stars
comments

What Went Wrong Tab

   
Blink 182
What went wrong (hidden track on the yellow version of Take Off Your Pants and Jacket)

standard tuning  eadgbe

intro 
E---------------
B---0-------0---
G-----2-------2-
D-2-------2-----
A---------------
E---------------

after playing the intro once add these chords and play the intro 2 more times before 1st verse
   
   A  F#m  D5
E--0---2-----
B--2---2-----
G--2---2---7-
D--2---4---7-
A--0---4---5-
E--0---2-----

1st verse
A         F#m                E5                   D5                   
I'm sick, of always hearing, all those sad songs, on the radio
A        F#m                    E5                    D5    
All day, it is there to remind, an oversensitive guy, that hes lost and 
alone

play intro 4x with chords

A       F#m                  E5                D5  
I hate, a favorite resraunt, a favorite movie, or a favorite show
A         F#m                            E5                
we would, stay up all through the night, we would laugh and get high,
D5
and never answer the phone


chorus
A          F#m            E5                D5              A          
I can't forgive, can't forget, can't give in, what went wrong, cause 
       F#m          E5        D5               
you said this was right, you f*cked up my life
[ Tab from: http://www.guitartabs.cc/tabs/b/blink_182/what_went_wrong_tab_ver_6.html ]
play the intro 2x with chords 

A         F#m                E5                D5            A 
I'm sick, of always hearing, sappy love songs, on the radio, this place
F#m                                   E5                      D5
it's f*cking cursed and it's plagued, and I can never escape, when my 
heart it explodes

chorus

bridge
E-----0---------------0---------------0---------------0------------
B-------------2---------------2----------------2---------------2---
G---2---2---2---2---2---2---2---2----2---2---2---2---2---2---2---2-
D----------------------------------0-------0-------0-------0-------
A------------------------------------------------------------------
E-2-------2-------2-------2----------------------------------------

------0---------------0---------------------
--------------2---------------2--------------
----2---2---2---2---2---2---2---2------------
----------------------------------0-----------
--0-------0-------2-------2------------------
----------------------------------------------

when you're done with that
play A F#m D5 like you do with the intro 

ending 4x
A                       
I'm kicking             
F#m                      
out fiercely           
D5                      
at the world           
A                     
around me              
F#m        E5           
what went wrong        

then this is the very end
A        
I'm kicking

Comments