Blink 182 - What Went Wrong Chords & Tabs

 

What Went Wrong Chords & Tabs

Blink 182 Chords & Tabs

Version: 3 Type: Tab 0 ratings
1 star 2 stars 3 stars 4 stars 5 stars
comments

What Went Wrong Tab

   
blink 182, what went wrong.
 Tabbed by martial, TakOffUPantJackt@aol.com.
  
----------------------------------------------------------------------
   BLINK-182                 T.O.Y.P.A.J.                      2001

   14 -> WHAT WENT WRONG
         ( ACOUSTIC )                                    

   My hear is not perfect so if you find any errors or if you have
     any comments don't hesitate e-mail me I answer every mail :
                       TakOffUPantJackt@aol.com
----------------------------------------------------------------------


CHORD CHART:
        F#      B       G#      A       D       Eii
E|--------------------------------------------------------------------
B|--------------------------------------------------------------------
G|--------------4-----------------------7-------9---------------------
D|------4-------4-------6-------7-------7-------9---------------------
A|------4-------2-------6-------7-------5-------7---------------------
E|------2---------------4-------5-------------------------------------

~ = let ring
x = palm mute



Riff 1:
E|--------------------------------------------------------------------
B|--------------------------------------------------------------------
G|---4-2-----4-2------------------------------------------------------
D|-2-------2----------------------------------------------------------
A|--------------------------------------------------------------------
E|--------------------------------------------------------------------


Bridge: A   F#   D
        A   F#   D


Verse:
      A
        I'm sick
                   F#
        Of always hearin'
                  Eii
        All those sad songs
                   D
        On the radio
      A
        All day,
                F#
        It is there to remind
                  Eii
        And over sensitive guy
                   D
        That he's lost and alone, yeah !


Bridge: A   F#   D
        A   F#   D

[ Tab from: http://www.guitartabs.cc/tabs/b/blink_182/what_went_wrong_tab_ver_3.html ]
Verse:
      A
        I hate
                     F#
        Our favorite restaurant
                     Eii
        Our favorite movie
              D
        Our favorite show
      A
        We would
                F#
        Stay up all through the night
                  Eii
        We would laught and get high
                   D
        And never answer the phone


Chorus:
      A             G#
        I can't forgive
                  F#
        Can't forget
                   D
        Can't give in
                  A
        What went wrong
                    G#            F#
        'cause you said this was right ?
             D            A
        You fucked up my life


Bridge: A   F#   D
        A   F#   D


Verse:
      A
        I'm sick
                   F#
        Of always hearing
               Eii
        Sappy love songs
                  D
        On the radio
      A
        This place
                       F#
        It's fuckin' cursed its plague.
                   Eii
        And I can never escape.
            D
        My heart it explodes.


-- Chorus --


Riff 2:
E|---0---------0---------0---------0---------0---------0--------------
B|--------2---------2---------2---------2---------2---------2----2-2-2
G|--2-2--2-2--2-2--2-2--2-2--2-2--2-2--2-2--2-2--2-2--2-2--2-2--2-2-2-
D|-4----4----4----4----0----0----0----0------------------------0-0-0--
A|-----------------------------------------0----0----2----2-----------
E|--------------------------------------------------------------------


Bridge: D
        F#   D  A
        F#   D  A   B   D


Verse: X 4
              A
        I'm kicking
             F#          D
        How fiercely at the world
          A
        Around me
         F#          D
        What we've wrong ?


Outro:  
              A
        I'm kicking
 
:: Ultimate Guitar Archive :: 
http://www.ultimate-guitar.com 



Comments