Blink 182 - What Went Wrong Chords & Tabs

 

What Went Wrong Chords & Tabs

Blink 182 Chords & Tabs

Version: 2 Type: Tab 3 ratings
1 star 2 stars 3 stars 4 stars 5 stars
comments

What Went Wrong Tab

What Went Wrong - Blink 182

Tabbed by: Matt 
Email: Mattiesmallz01@yahoo.com

Should be 100% correct if you have any corrections let me know.


Intro - Gtr. 1 (0:00-0:12)
e|---------------------------------------------------------------------------------|
B|---------------------------------------------------------------------------------|
G|-----4---2---------4---2---------4---2---------4---2---------4---2---------4---2-| 
D|-2-------------2-------------2-------------2-------------2-------------2---------| 
A|---------------------------------------------------------------------------------|
E|---------------------------------------------------------------------------------|

Gtr. 2 (0:04-0:12)                                           
e|--------------------------------------------------------------------------------------|
B|--------------------------------------------------------------------------------------|
G|-------------------------------7-7-7-7-7-7--------------------------------7-7-7-7-7-7-|
D|-7-7-7-7-7-7-7-7--4-4-4-4-4-4--7-7-7-7-7-7--7-7-7-7-7-7-7-7--4-4-4-4-4-4--7-7-7-7-7-7-| 
A|-7-7-7-7-7-7-7-7--4-4-4-4-4-4--5-5-5-5-5-5--5-7-7-7-7-7-7-7--4-4-4-4-4-4--5-5-5-5-5-5-|
E|-5-5-5-5-5-5-5-5--2-2-2-2-2-2---------------5-5-5-5-5-5-5-5--2-2-2-2-2-2--------------|


Verse - (0:13-0:29)
e|------------------------------------------------------------------|
B|------------------------------------------------------------------|
G|------------------------------------------------------------------|
D|---7-7-7-7-7-7-7-7-7-7-------4-4-4-4-4-4-4-4-4-4------------------|
A|---7-7-7-7-7-7-7-7-7-7-------4-4-4-4-4-4-4-4-4-4------------------|
E|---5-5-5-5-5-5-5-5-5-5-------2-2-2-2-2-2-2-2-2-2------------------|
        
           I'm sick             of always hearing
                                                            
e|------------------------------------------------------------------|
B|------------------------------------------------------------------|
G|---9-9-9-9-9-9-9-9-9-9-------7-7-7-7-7-7-7-7-7-7------------------|
D|---9-9-9-9-9-9-9-9-9-9-------7-7-7-7-7-7-7-7-7-7------------------|
A|---7-7-7-7-7-7-7-7-7-7-------5-5-5-5-5-5-5-5-5-5------------------|
E|------------------------------------------------------------------|
 
      all those sad songs         on the radio
 
e|------------------------------------------------------------------|
B|------------------------------------------------------------------|
G|------------------------------------------------------------------|
D|---7-7-7-7-7-7-7-7-7-7-------4-4-4-4-4-4-4-4-4-4------------------|
A|---7-7-7-7-7-7-7-7-7-7-------4-4-4-4-4-4-4-4-4-4------------------|
E|---5-5-5-5-5-5-5-5-5-5-------2-2-2-2-2-2-2-2-2-2------------------|

           All day             it is there to remind
                                                                    
e|------------------------------------------------------------------|
B|------------------------------------------------------------------|
G|---9-9-9-9-9-9-9-9-9-9-------7-7-7-7-7-7-7-7-7-7------------------|
D|---9-9-9-9-9-9-9-9-9-9-------7-7-7-7-7-7-7-7-7-7------------------|
A|---7-7-7-7-7-7-7-7-7-7-------5-5-5-5-5-5-5-5-5-5------------------|
E|------------------------------------------------------------------|

    Another sensitive guy    That is lost and alone, yeah


Interlude - Gtr. 1 (0:30-0:38)
e|--------------------------------------------------------|
B|--------------------------------------------------------|
G|-----4---2---------4---2---------4---2---------4---2----|
D|-2-------------2-------------2-------------2------------|
A|--------------------------------------------------------|
E|--------------------------------------------------------|

Gtr. 2 (0:30-0:37)                                           
e|--------------------------------------------------------------------------------------|
B|--------------------------------------------------------------------------------------|
G|-------------------------------7-7-7-7-7-7--------------------------------7-7-7-7-7-7-|
D|-7-7-7-7-7-7-7-7--4-4-4-4-4-4--7-7-7-7-7-7--7-7-7-7-7-7-7-7--4-4-4-4-4-4--7-7-7-7-7-7-| 
A|-7-7-7-7-7-7-7-7--4-4-4-4-4-4--5-5-5-5-5-5--5-7-7-7-7-7-7-7--4-4-4-4-4-4--5-5-5-5-5-5-|
E|-5-5-5-5-5-5-5-5--2-2-2-2-2-2---------------5-5-5-5-5-5-5-5--2-2-2-2-2-2--------------|


Verse - (0:38-0:54)
e|------------------------------------------------------------------|
B|------------------------------------------------------------------|
G|------------------------------------------------------------------|
D|---7-7-7-7-7-7-7-7-7-7-------4-4-4-4-4-4-4-4-4-4------------------|
A|---7-7-7-7-7-7-7-7-7-7-------4-4-4-4-4-4-4-4-4-4------------------|
E|---5-5-5-5-5-5-5-5-5-5-------2-2-2-2-2-2-2-2-2-2------------------|
        
       I hate our favorite        restuarant our favorite  
                                        
e|------------------------------------------------------------------|
B|------------------------------------------------------------------|
G|---9-9-9-9-9-9-9-9-9-9-------7-7-7-7-7-7-7-7-7-7------------------|
D|---9-9-9-9-9-9-9-9-9-9-------7-7-7-7-7-7-7-7-7-7------------------|
A|---7-7-7-7-7-7-7-7-7-7-------5-5-5-5-5-5-5-5-5-5------------------|
E|------------------------------------------------------------------|
 
        movie our favorite          show

e|------------------------------------------------------------------|
B|------------------------------------------------------------------|
G|------------------------------------------------------------------|
D|---7-7-7-7-7-7-7-7-7-7-------4-4-4-4-4-4-4-4-4-4------------------|
A|---7-7-7-7-7-7-7-7-7-7-------4-4-4-4-4-4-4-4-4-4------------------|
E|---5-5-5-5-5-5-5-5-5-5-------2-2-2-2-2-2-2-2-2-2------------------|

        We would stay up          all through the night
                                                                    
e|------------------------------------------------------------------|
B|------------------------------------------------------------------|
G|---9-9-9-9-9-9-9-9-9-9-------7-7-7-7-7-7-7-7-7-7------------------|
D|---9-9-9-9-9-9-9-9-9-9-------7-7-7-7-7-7-7-7-7-7------------------|
A|---7-7-7-7-7-7-7-7-7-7-------5-5-5-5-5-5-5-5-5-5------------------|
E|------------------------------------------------------------------|

   We would laugh and get high   and never answer the phone   


Chorus - (0:55-1:11)
e|--------------------------------------------------------|
B|--------------------------------------------------------|
G|--------------------------------------------------------|
D|---7-7-7-7-7-7-7-7-7-7-7---7-7-7-7-7-7-7-7-7-7-7--------|
A|---7-7-7-7-7-7-7-7-7-7-7---7-7-7-7-7-7-7-7-7-7-7--------|
E|---5-5-5-5-5-5-5-5-5-5-5---4-4-4-4-4-4-4-4-4-4-4--------|
                                                             (x2)
e|--------------------------------------------------------|
B|--------------------------------------------------------|
G|---------------------------7-7-7-7-7-7-7-7-7-7-7--------|
D|---4-4-4-4-4-4-4-4-4-4-4---7-7-7-7-7-7-7-7-7-7-7--------|
A|---4-4-4-4-4-4-4-4-4-4-4---5-5-5-5-5-5-5-5-5-5-5--------|
E|---2-2-2-2-2-2-2-2-2-2-2--------------------------------|

I can't forgive, can't forget, can't give in,
What went wrong, 'cause you said this was right,
You ***ed up my life.


Interlude - Gtr. 1 (1:12-1:19)
e|--------------------------------------------------------|
B|--------------------------------------------------------|
G|-----4---2---------4---2---------4---2---------4---2----|
D|-2-------------2-------------2-------------2------------|
A|--------------------------------------------------------|
E|--------------------------------------------------------|
[ Tab from: http://www.guitartabs.cc/tabs/b/blink_182/what_went_wrong_tab_ver_2.html ]
Gtr. 2 (1:12-1:19)                                          
e|--------------------------------------------------------------------------------------|
B|--------------------------------------------------------------------------------------|
G|-------------------------------7-7-7-7-7-7--------------------------------7-7-7-7-7-7-|
D|-7-7-7-7-7-7-7-7--4-4-4-4-4-4--7-7-7-7-7-7--7-7-7-7-7-7-7-7--4-4-4-4-4-4--7-7-7-7-7-7-| 
A|-7-7-7-7-7-7-7-7--4-4-4-4-4-4--5-5-5-5-5-5--5-7-7-7-7-7-7-7--4-4-4-4-4-4--5-5-5-5-5-5-|
E|-5-5-5-5-5-5-5-5--2-2-2-2-2-2---------------5-5-5-5-5-5-5-5--2-2-2-2-2-2--------------|


Verse - (1:20-1:37)
e|------------------------------------------------------------------|
B|------------------------------------------------------------------|
G|------------------------------------------------------------------|
D|---7-7-7-7-7-7-7-7-7-7-------4-4-4-4-4-4-4-4-4-4------------------|
A|---7-7-7-7-7-7-7-7-7-7-------4-4-4-4-4-4-4-4-4-4------------------|
E|---5-5-5-5-5-5-5-5-5-5-------2-2-2-2-2-2-2-2-2-2------------------|
        
           I'm sick             of always hearing
                                                            
e|------------------------------------------------------------------|
B|------------------------------------------------------------------|
G|---9-9-9-9-9-9-9-9-9-9-------7-7-7-7-7-7-7-7-7-7------------------|
D|---9-9-9-9-9-9-9-9-9-9-------7-7-7-7-7-7-7-7-7-7------------------|
A|---7-7-7-7-7-7-7-7-7-7-------5-5-5-5-5-5-5-5-5-5------------------|
E|------------------------------------------------------------------|
   
      sappy love songs             on the radio
 
e|------------------------------------------------------------------|
B|------------------------------------------------------------------|
G|------------------------------------------------------------------|
D|---7-7-7-7-7-7-7-7-7-7-------4-4-4-4-4-4-4-4-4-4------------------|
A|---7-7-7-7-7-7-7-7-7-7-------4-4-4-4-4-4-4-4-4-4------------------|
E|---5-5-5-5-5-5-5-5-5-5-------2-2-2-2-2-2-2-2-2-2------------------|

       This place it's       ***king cursed in its plague    
                                                                    
e|------------------------------------------------------------------|
B|------------------------------------------------------------------|
G|---9-9-9-9-9-9-9-9-9-9-------7-7-7-7-7-7-7-7-7-7------------------|
D|---9-9-9-9-9-9-9-9-9-9-------7-7-7-7-7-7-7-7-7-7------------------|
A|---7-7-7-7-7-7-7-7-7-7-------5-5-5-5-5-5-5-5-5-5------------------|
E|------------------------------------------------------------------|

    Yet I can never escape      when my heart it explodes

Chorus - (1:38-1:54)

e|----------------------------------------------------|
B|----------------------------------------------------|
G|----------------------------------------------------|
D|---7-7-7-7-7-7-7-7-7-7--7-7-7-7-7-7-7-7-7-7---------|
A|---7-7-7-7-7-7-7-7-7-7--7-7-7-7-7-7-7-7-7-7---------|
E|---5-5-5-5-5-5-5-5-5-5--4-4-4-4-4-4-4-4-4-4---------|
							(x2)
e|----------------------------------------------------|
B|----------------------------------------------------|
G|------------------------7-7-7-7-7-7-7-7-7-7---------|
D|---4-4-4-4-4-4-4-4-4-4--7-7-7-7-7-7-7-7-7-7---------|
A|---4-4-4-4-4-4-4-4-4-4--5-5-5-5-5-5-5-5-5-5---------|
E|---2-2-2-2-2-2-2-2-2-2------------------------------|

I can't forgive, can't forget, can't give in,
What went wrong, 'cause you said this was right,
You ***ed up my life.


Instrumental - Gtr. 1 - (1:55-2:09)

e|-----------0------|------------------|
B|------------------|-----------2------|
G|-------2-------2--|-------2-------2--|
D|------------------|------------------|
A|------------------|------------------|
E|---2--------------|---2--------------|

e|-----------0------|------------------|
B|------------------|-----------2------|
G|-------2-------2--|-------2-------2--|
D|------------------|------------------|
A|------------------|------------------|
E|---2--------------|---2--------------|

e|-----------0------|------------------|
B|------------------|-----------2------|
G|-------2-------2--|-------2-------2--|
D|---0--------------|---0--------------|
A|------------------|------------------|
E|------------------|------------------|

e|-----------0------|------------------|
B|------------------|-----------2------|
G|-------2-------2--|-------2-------2--|
D|---0--------------|---0--------------|
A|------------------|------------------|
E|------------------|------------------|

e|-----------0------|------------------|
B|------------------|-----------2------|
G|-------2-------2--|-------2-------2--|
D|------------------|------------------|
A|---0--------------|---0--------------|
E|------------------|------------------|

e|-----------0------|------------------|
B|------------------|-----------2------|
G|-------2-------2--|-------2-------2--|
D|------------------|------------------|
A|---2--------------|---2--------------|
E|------------------|------------------|

e|---------------------------------------------------|
B|-----------2-----------2-----------2------------2--|
G|-------2-----------2-----------2------------2------|
D|---0-----------0-----------0-----------0-----------|
A|---------------------------------------------------|
E|---------------------------------------------------|

Gtr. 2 - (2:08-2:31)                       

e|---------------------------------------------------|
B|---2-2-2-2-2-2-2-2-2-2-2---------------------------|
G|---2-2-2-2-2-2-2-2-2-2-2---------------------------|
D|---0-0-0-0-0-0-0-0-0-0-0---4-4-4-4-4-4-4-4-4-4-4---|
A|---------------------------4-4-4-4-4-4-4-4-4-4-4---|
E|---------------------------2-2-2-2-2-2-2-2-2-2-2---|

e|----------------------------------------------------------------------|
B|----------------------------------------------------------------------|
G|---7-7-7-7-7-7-7-7-7-7------------------------------------------------|
D|---7-7-7-7-7-7-7-7-7-7--7-7-7-7-7-7-7-7-7-7--7-7-7-7-7-7-7-7-7-7------|
A|---5-5-5-5-5-5-5-5-5-5--7-7-7-7-7-7-7-7-7-7--7-7-7-7-7-7-7-7-7-7------|
E|------------------------5-5-5-5-5-5-5-5-5-5--5-5-5-5-5-5-5-5-5-5------|

e|------------------------------------------------------------------------------------|
B|------------------------------------------------------------------------------------|
G|----------------------7-7-7-7-7-7-7-7-7-7-------------------------------------------|
D|-4-4-4-4-4-4-4-4-4-4--7-7-7-7-7-7-7-7-7-7--7-7-7-7-7-7-7-7-7-7--7-7-7-7-7-7-7-7-7-7-|
A|-4-4-4-4-4-4-4-4-4-4--5-5-5-5-5-5-5-5-5-5--7-7-7-7-7-7-7-7-7-7--7-7-7-7-7-7-7-7-7-7-|
E|-2-2-2-2-2-2-2-2-2-2-----------------------5-5-5-5-5-5-5-5-5-5--5-5-5-5-5-5-5-5-5-5-|

e|-----------------------------------------------------------|
B|-----------------------------------------------------------|
G|---9-9-9-9-9-9-9-9-9-9--7-7-7-7-7-7-7-7-7-7----------------|
D|---9-9-9-9-9-9-9-9-9-9--7-7-7-7-7-7-7-7-7-7----------------|
A|---7-7-7-7-7-7-7-7-7-7--5-5-5-5-5-5-5-5-5-5----------------|
E|-----------------------------------------------------------|

Outro - Gtr. 2 - (2:32-3:13)
e|--------------------------------------------------------------------------------------|
B|--------------------------------------------------------------------------------------|
G|-------------------------------7-7-7-7-7-7--------------------------------7-7-7-7-7-7-|
D|-7-7-7-7-7-7-7-7--4-4-4-4-4-4--7-7-7-7-7-7--7-7-7-7-7-7-7-7--4-4-4-4-4-4--7-7-7-7-7-7-| (x4)
A|-7-7-7-7-7-7-7-7--4-4-4-4-4-4--5-5-5-5-5-5--5-7-7-7-7-7-7-7--4-4-4-4-4-4--5-5-5-5-5-5-|
E|-5-5-5-5-5-5-5-5--2-2-2-2-2-2---------------5-5-5-5-5-5-5-5--2-2-2-2-2-2--------------|

Gtr. 1 - (2:49-3:13)
e|--------------------------------------|
B|--------------------------------------|
G|----------4---2---------------4---2---|
D|------2-------------------2-----------| (x8)
A|--------------------------------------|
E|--------------------------------------|

Questions or comments send to mattiesmallz01@yahoo.com

Comments