Blink 182 - What Went Wrong Chords & Tabs

 

What Went Wrong Chords & Tabs

Blink 182 Chords & Tabs

Version: 1 Type: Tab 1 rating
1 star 2 stars 3 stars 4 stars 5 stars
comments

What Went Wrong Tab

   
Submitted by Steven Maguire on the 05/08/01.

This is track 14 on the special edition version of Take Off Your Pants And Jacket.

This is the first song I have ever tabbed but I`m pretty sure it`s accurate.  If you have any comments or questions, feel free to e-mail me at miggyuk@yahoo.co.uk

This is a fairly easy song to play and is played on an accoustic in standard tuning with no effects.  It also sounds pretty good on a 12 string or with an improvised bass line using the lowest notes of each chord.  
For example if you were to play 
E---------
B---------
G---------
D--7-7-7--
A--7-7-7--
E--5-5-5--
On the guitar, then the bass would play
|---------
|---------
|---------
|--5-5-5--
Simple.  I`m not a bassist but I`ve tried this with a friend and it sounds pretty good, it would be good for performances.

INTRO
E--------------------------------------------------
B--------------------------------------------------
G--------------------------------------------------
D-------9---7--------------9---7-------------------  x4
A---7------------------7---------------------------
E--------------------------------------------------


E--------------------------------------------------
B--------------------------------------------------
G----------------------------------7-7-7-7---------
D---7-7-7-7-7-7-7-7----4-4-4-4-----7-7-7-7--------- x2
A---7-7-7-7-7-7-7-7----4-4-4-4-----5-5-5-5---------
E---5-5-5-5-5-5-5-5----2-2-2-2---------------------
             (A)            (F#)        (D)
       
Play the above and sing this to end the song.
Im kicking, out fiercely at the world around me, what went wrong? 





Verse
E--------------------------------------------------
B--------------------------------------------------
G--------------------------9-9-9-9-----7-7-7-7-----
D--7-7-7-7-----4-4-4-4-----9-9-9-9-----7-7-7-7----- x2
A--7-7-7-7-----4-4-4-4-----7-7-7-7-----5-5-5-5-----
E--5-5-5-5-----2-2-2-2-----------------------------
    (A)         (F#)         (E)         (D)




[ Tab from: http://www.guitartabs.cc/tabs/b/blink_182/what_went_wrong_tab.html ]
Chorus                                                    
E--------------------------------------------------
B--------------------------------------------------
G--------------------------------7-7-7-7-----------
D--7-7-7-7---6-6-6-6---4-4-4-4---7-7-7-7-----------
A--7-7-7-7---6-6-6-6---4-4-4-4---5-5-5-5-----------
E--5-5-5-5---4-4-4-4---2-2-2-2---------------------
      (A)      (G#)       (F#)      (D)             
 




This is the pretty instrumental part in the middle of the song             
E-----0----|---------|-----0----|---------|
B----------|-----2---|----------|-----2---|
G---2---2--|--2----2-|---2---2--|--2----2-|
D----------|---------|----------|---------|
A----------|---------|----------|---------|
E-2--------|2--------|-2--------|2--------|


E-----0----|---------|-----0----|---------|
B----------|-----2---|----------|-----2---|
G---2---2--|---2---2-|---2---2--|---2---2-|
D-0--------|-0-------|-0--------|-0-------|
A----------|---------|----------|---------|
E----------|---------|----------|---------|

E----0-----|---------|----0-----|---------|
B----------|-----2---|----------|-----2---|
G--2---2---|---2---2-|--2---2---|---2---2-|
D----------|---------|----------|---------|
A-0--------|-0-------|-2--------|--2------|
E----------|---------|----------|---------|

E-----------------------------------
B------2-----2----2------2--2222----
G---2-----2-----2-----2-----2222----
D-0-----0-----0-----0-------0000----
A------------------------------------
E-----------------------------------

E------------------------------------|----------------------
B------------------------------------|----------------------
G-------------7-7-7-7----------------|--9-9-9-9---7-7-7-7---
D--4-4-4-4----7-7-7-7--7-7-7-7-------|--9-9-9-9---7-7-7-7---
A--4-4-4-4----5-5-5-5--7-7-7-7---X2--|--7-7-7-7---5-5-5-5---
E--2-2-2-2-------------5-5-5-5-------|----------------------
   (F#)         (D)      (A)              (E)       (D5)

Again, if you have any questions or comments, e-mail me at miggyuk@yahoo.co.uk
Comments