Blink 182 - What S My Age Again Chords & Tabs

 

What S My Age Again Chords & Tabs

Blink 182 Chords & Tabs

Version: 1 Type: Tab 3 ratings
1 star 2 stars 3 stars 4 stars 5 stars
comments

What S My Age Again Tab

Blink 182's all the small things
submitted by Matt	

I would like to tab this song
a little way I like to call
the Right Way, so, here it goes 



                     Intro & verse   
[ Tab from: http://www.guitartabs.cc/tabs/b/blink_182/what_s_my_age_again_tab.html ]
E--------------------------------------------------------------------------------
B------11----------11----------11-----------11-----------------------------------
G---11----11----11----11----11----11-----11----11--------------------------------
D-9------------------------------------------------------(a buncha times)--------
A-------------9------------------------------------------------------------------
E-------------------------9-----------11-----------------------------------------

                      Chorus

E--------------------------------------------------------------------------------
B--------------------------------------------------------------------------------
G------6-6--8-8--4-4------------6-6--8------6------4-----------------------------
D-4-4--6-6--8-8--4-4--(x3)-4-4--6-6--8-(x8)-6-(x8)-4--(let ring)-----------------
A-4-4--4-4--6-6--2-2-------4-4--4-4--6------4------2-----------------------------
E-2-2----------------------2-2---------------------------------------------------

repeat all the above and voila!, that's it...if you have any questions or comments 
feel free to e-mail me at Smrtalikson@aol.com
Comments