Blink 182 - Wendy Clear[*] Chords & Tabs

 

Wendy Clear[*] Chords & Tabs

Blink 182 Chords & Tabs

Version: 7 Type: Tab 0 ratings
1 star 2 stars 3 stars 4 stars 5 stars
comments

Wendy Clear[*] Tab

   
----------------------------------------------------------
		Wendy Clear - Blink 182
----------------------------------------------------------

Tabbed By: J.D. Norwood (j_d_norwood12@hotmail.com)


			Intro
Guitar 1 plays that part 2 times then guitar 2 comes in

	Guitar 1			Guitar 2
e|--------------------------|-----------------------------|
B|--------------------------|-----------------------------|
G|---0----------------------|-----------------------------|
D|-------0-3-2--------------|--5--------------------------|
A|-3---3--------------------|--3-(do that til da singin)--|
E|--------------------------|-----------------------------|

			Verse
i dont know how many times he plays each chord exactly but
just listen and you'll find out 
e|--------------------------------------------------------|
B|--------------------------------------------------------|
G|--------------------------------------------------------|
D|-55555555555555555555555--------------------------------|
A|-33333333333333333333333-33333333-77777777-33333333-----|
E|-------------------------11111111-55555555-11111111-----|

			Chorus
e|--------------------------------------------------------|
B|--------------------------------------------------------|
G|--------------------------------------------------------|
D|-55555555--------------------55555555-------------------|
A|-33333333-55555555-33333333--33333333-55555555-33333333-|
E|----------33333333-11111111-----------33333333-11111111-|

e|--------------------------------------------------------|
B|--------------------------------------------------------|
G|--------------------------------------------------------|
D|-55555555-------------------55555555--------------------|
A|-33333333-77777777-33333333-33333333-55555555-77777777--|
E|----------55555555-11111111----------33333333-55555555--|
[ Tab from: http://www.guitartabs.cc/tabs/b/blink_182/wendy_clear_tab_ver_7.html ]
e|--------------------------------------------------------|
B|--------------------------------------------------------|
G|--------------------------------------------------------|
D|--------------------------------------------------------|
A|-33333333-----------------------------------------------|
E|-11111111-----------------------------------------------|

			midle thing 
e|--------------------------------------------------------|
B|--------------------------------------------------------|
G|--------------------------------------------------------|
D|---------55--------------55555555-----------------------|
A|-77--33--33--55--77--33--33333333-----------------------|
E|-55--11------33--55--11---------------------------------|

			Outro
e|--------------------------------------------------------|
B|--------------------------------------------------------|
G|--------------------------------------------------------|
D|-55555555----------55555555-55555555----------55555555--|
A|-33333333-55555555-33333333-33333333-55555555-33333333--|
E|----------33333333-------------------33333333-----------|

e|--------------------------------------------------------|
B|--------------------------------------------------------|
G|--------------------------------------------------------|
D|-------------------55555555-----------------------------|
A|-77777777-33333333-33333333-55555555-77777777-33333333--|
E|-55555555-11111111----------33333333-55555555-11111111--|

e|--------------------------------|
B|--------------------------------|
G|--------------------------------|
D|-555555555555555555555555555555-|
A|-333333333333333333333333333333-|
E|--------------------------------|

	Order
Intro x8
verse x2
Chorus x1
Intro x6
Chorus x1
midle thing x2
Intro x8
Outro x1

If theres anythin i forgot inbetween things its probably 
this chord D|-5-
	   A|-3-
==========================================================
Comments