Blink 182 - Wendy Clear[*] Chords & Tabs

 

Wendy Clear[*] Chords & Tabs

Blink 182 Chords & Tabs

Version: 4 Type: Tab 0 ratings
1 star 2 stars 3 stars 4 stars 5 stars
comments

Wendy Clear[*] Tab

   
Blink 182 - Wendy Clear.
 Tabbed by Mike, hawker489@aol.com.
  
standard tuning

Intro
e---------------x8
B---------------
G---------------
D---5-----3-2---
A-3---3-5-------
E---------------

Verse
e-----------------------------------------------x2
B-----------------------------------------------
G-555555555555555-------------------------------
D-555555555555555-5-3-3-3-3-7-7-7-7-3-3-3-3-5---
A-333333333333333-5-3-3-3-3-7-7-7-7-3-3-3-3-5---
E-----------------3-1-1-1-1-5-5-5-5-1-1-1-1-5---
[ Tab from: http://www.guitartabs.cc/tabs/b/blink_182/wendy_clear_tab_ver_4.html ]
Chorus:/I'd play with fire.../
e----------------------------------x2
B----------------------------------
G-----------------5-5-5-5-5-5-5-5--
D-5-5-5-5-3-3-3-3-5-5-5-5-5-5-5-5--
A-5-5-5-5-3-3-3-3-3-3-3-3-3-3-3-3--
E-3-3-3-3-1-1-1-1------------------

/is it something i'll regret/
e-------------------------------------------------
B-------------------------------------------------
G-----------------5-5-5-5-------------------------
D-7-7-7-7-3-3-3-3-5-5-5-5-5-5-5-5-7-7-7-7-3-3-3-3-
A-7-7-7-7-3-3-3-3-3-3-3-3-5-5-5-5-7-7-7-7-3-3-3-3-
E-5-5-5-5-1-1-1-1---------3-3-3-3-5-5-5-5-1-1-1-1-

Bridge:/I'll be movin on/
e-------------------------------------x2
B-------------------------------------
G-----------5-5-----------------------
D-5-5--3-3--5-5--5-5--7-7--33333333---
A-5-5--3-3--3-3--5-5--7-7--33333333---
E-3-3--1-1-------3-3--5-5--11111111---

Well tats it. You can us the song to help ifyou need
it. 
:: Ultimate Guitar Archive :: 
http://www.ultimate-guitar.com 



Comments