Blink 182 - Wendy Clear[*] Chords & Tabs

 

Wendy Clear[*] Chords & Tabs

Blink 182 Chords & Tabs

Version: 1 Type: Bass Tab 0 ratings
1 star 2 stars 3 stars 4 stars 5 stars
comments

Wendy Clear[*] Bass Tab

Song: Wendy Clear		
Band: Blink 182
Album: Enema Of The State
Tabbed by: Fabricio Oliveira (bassdude@zipmail.com.br)
Member of the Bass Tab Archive Tabbing Army ~ http://www.basstabarchive.com

Intro: Guitar

 0:03 - Part A		*=Play 4x	#=Play 2x
G-----------------------------------------------------------------------------
D-----------------------3--3-3-3-3-3-3*--5--5-5-5-5-5-5#--3--3-3-3-3-3-3#-----
A-15\--3--3-3-3-3-3-3*--------------------------------------------------------
E-----------------------------------------------------------------------------


 0:16 - Part B		*=Play 4x	#=Play 2x
G-----------------------------------------------------------------------------
D-----------------------------------------------------------------------------
A--3--3-3-3-3-3-3*---------------------------------------------------3--------
E-------------------3--1--1-1-1-1-1#--5--5-5-5-5-5-5--1--1-1-1-1--3-----------


 0:24 - Part C		@=Play 6x
G-----------------------------------------------------------------------------
D-----------------------------------------------------------------------------
A--3--3-3-3-3-3-3@------------------------------------------------------------
E-------------------3--1--1-1-1-1-1#--5--5-5-5-5-5-5--1--1-1-1-1--3-----------


 0:35 - Part D: 2x		#=Play 2x
G-----------------------------------------------------------------------------
D-------------------5--5-5-5-5-5-5--3--3-3-3-3-3-3----------------------------
A--3--3-3-3-3-3-3#------------------------------------------------------------
E-----------------------------------------------------------------------------

 0:43
G-----------------------------------------------------------------------------
D-----------------------------------------------------------------------------
A--3--3-3-3-3-3-3--3--3-3-3-3-3-3---------------------------------------------
E-----------------------------------------------------------------------------

[ Tab from: http://www.guitartabs.cc/tabs/b/blink_182/wendy_clear_btab.html ]
 0:46 - Part E
G---------------------------------------------------------------------------------------------
D---------------------------------------------------------------------------------------------
A--------------------------------3--3-3-3-3-3-3-----------------------------------------------
E-5--5-5-5-5-5-5--1--1-1-1-1-1-1----------------3--3-3-3-3-3-3-5--5-5-5-5-5-5--1--1-1-1-1-1-1-


 0:52 - Part F		*=Play 4x	#=Play 2x
G-----------------------------------------------------------------------------
D-------------------3--3-3-3-3-3-3*--5--5-5-5-5-5-5#--3--3-3-3-3-3-3#---------
A--3--3-3-3-3-3-3*------------------------------------------------------------
E-----------------------------------------------------------------------------


 1:04 - Part B

 1:12 - Part C


 1:23 - Part G		#=Play 2x
G-----------------------------------------------------------------------------
D-------------------5--5-5-5-5-5-5--3--3-3-3-3-3-3----------------------------
A--3--3-3-3-3-3-3#------------------------------------------------------------
E-----------------------------------------------------------------------------


 1:27 - Part D

 1:34 - Part E


 1:40 - Part H: 2x		#=Play 2x
G------------------------------------------------------------------------------
D------------------------------------------------------------------------------
A--3--3-3-3-3-3-3#--------------3-3x-------------------------------------------
E-------------------5-5x--1-1x--------3-3x--5-5x--1-1-1-1-1-1------------------


 1:57 - Part F

 
 2:09 - Part I		*=Play 4x
G------------------------------------------------------------------------------
D------------------------------------------------------------------------------
A--3--3-3-3-3-3-3*-------------------------------------------------------------
E------------------------------------------------------------------------------
 

 2:13 - Part J: There's no bass here, just let the guitar plays

 2:28 - Part G: 2x


 2:36 - Part K
G------------------------------------------------------------------------------
D-----------------------------------5--3---------------------------------------
A--3--3-3-3-3-3-3---3--3-3-3-3-3-3--------3------------------------------------
E------------------------------------------------------------------------------

That's it.

Comments