Blink 182 - Wasting Time Chords & Tabs

 

Wasting Time Chords & Tabs

Blink 182 Chords & Tabs

Version: 7 Type: Tab 0 ratings
1 star 2 stars 3 stars 4 stars 5 stars
comments

Wasting Time Tab

   
Wasting Time
Blink 182
Cheshire Cat, 1994
Tabbed by: Lewis Richards (lewis_ricardo@hotmail.com)

This is my version of Wasting Time, i think its 100% correct. Email me if you got any problems. 

x= Mute

Main Riff:
e|--------------------------------------------| 
B|--------------------------------------------| 
G|--------------------------------------------| 
D|-----9-7-6-----6-7-7-9-----6-7-7------------|
A|---7-------0-0---------4-4-----------9-7-6--| 
E|-0-------------------------------7-7--------|      

Verse  
e|--------------------------------------------| 
B|--------------------------------------------| 
G|--------------66666-44444-------------------| 
D|-7x-777-22222-66666-44444-------------------|
A|-7x-777-22222-44444-22222-------------------| 
E|-5x-555-00000-------------------------------|   
   
Pre-Main Riff
e|-------------------------------------------------------------|
B|-----------------------------------------10-------10-10------| 
G|--------------66666666-44444444-22222222----9---9-------9----| 
D|-7x-777-22222-66666666-44444444-22222222------7-----------7--|
A|-7x-555-22222-44444444-22222222-00000000---------------------| 
E|-5x-555-00000------------------------------------------------|
[ Tab from: http://www.guitartabs.cc/tabs/b/blink_182/wasting_time_tab_ver_7.html ]
Chorus (a)

e|--------------------------------------------|
B|--------------------------------------------|
G|-------22222--66666--44444------------------|
D|-22222-22222--66666--44444------------------|
A|-22222-00000--44444--22222------------------|
E|-00000--------------------------------------|

Chorus (b)

e|--------------------------------------------|
B|--------------------------------------------|
G|-------2xxxx--6xxxx--4xxxx------------------|
D|-2xxxx-2xxxx--6xxxx--4xxxx------------------|
A|-2xxxx-0xxxx--4xxxx--2xxxx------------------|
E|-0xxxx--------------------------------------|
  ^-----Play With Heavy Palm Muting------^

End (Let Ring)

e|-----------|
B|-----------|
G|-2---------|
D|-2---------|
A|-0---------|
E|-----------|

This is really a 2 guitar song, so ill put out the song progression like two people are playing it (in brackets is the second guitar), it doesnt really matter anyway if only one person plays it, its an amazing song anyway! Blink rule......

Main Riff x 2 (Chorus x 2)
Verse x 3
Pre-Main Riff x 1
Main Riff x 2 (Chorus x 2)
Chorus (a) x 4
Verse x 3
Pre-Main Riff x 1
Main Riff x 2 (Chorus x 2)
Chorus (b) x 2
Chorus (a) x 2
Verse x 5
Pre-Main Riff x 1
Main Riff x 4 (Chorus x 4)
End x 1
Comments