Blink 182 - Wasting Time Chords & Tabs

 

Wasting Time Chords & Tabs

Blink 182 Chords & Tabs

Version: 5 Type: Tab 0 ratings
1 star 2 stars 3 stars 4 stars 5 stars
comments

Wasting Time Tab

Standard Tuning
x=mute string
_=palm mute

Intro x4 
e------------------------------------------------------|
B------------------------------------------------------|
G------------------------------------------------------|
D-------9-7-6-----6h7-9-7-6-----6h7-7-6-4--------------|
A-----7-------0-0-----------4-4--------------7---9-7-6-|
E-0-0-------------------------------------7-7--7-------|

Verse x3
e-------------------------------------------|
B-------------------------------------------|
G-----------------6-6-6-6--4-4-4-4-4--------|
D-7-7--2-2-2-2-2--6-6-6-6--4-4-4-4-4--------|
A-7-7--2-2-2-2-2--4-4-4-4--2-2-2-2-2--------|
E-5-5--0-0-0-0-0----------------------------|
  _
[ Tab from: http://www.guitartabs.cc/tabs/b/blink_182/wasting_time_tab_ver_5.html ]
fill
e-----------------------------------------------------|
B-----------------------------------------------------|
G------------------6666666666666666--4444444444444444-|
D-7-7---2-2-2-2-2--xxxxxxxxxxxxxxxx--xxxxxxxxxxxxxxxx-|
A-7-7---2-2-2-2-2--4444444444444444--2222222222222222-|
E-5-5---0-0-0-0-0-------------------------------------|
  _

-------------------5--5--5--5---|
--------------------5--5--5--5--|
-2222222222222222---------------|
-xxxxxxxxxxxxxxxx---------------|
-0000000000000000---------------|
--------------------------------|

Intro x2

Chorus
e-----------------------------------------|
B-----------------------------------------|
G-99999999------------66666666------------|
D-99999999--77777777--66666666--99999999--|
A-77777777--77777777--44444444--99999999--|
E-----------55555555------------77777777--|

Verse x3

fill

Intro x2

Chorus second time
e---------------------------------------------|
B---------------------------------------------|
G-9-9999999-------------6-6666666--4-4444444--|
D-9-9999999--7-7777777--6-6666666--4-4444444--|
A-7-7777777--7-7777777--4-4444444--2-2222222--|
E------------5-5555555------------------------|
  _          _          _          _

Chorus

Verse x3

fill 

Intro x2
Comments