Blink 182 - Wasting Time Chords & Tabs

 

Wasting Time Chords & Tabs

Blink 182 Chords & Tabs

Version: 4 Type: Tab 0 ratings
1 star 2 stars 3 stars 4 stars 5 stars
comments

Wasting Time Tab

-------------------------------------------------------------------------------
			     Wasting Time - Blink 182
-------------------------------------------------------------------------------

By:Marc Jones
Marc_182UK@Yahoo.Co.Uk

Don't tell me this is wrong. There has been millions of tabs which just have been
totally wrong. This is how you play this rad song.

Intro: 2 times
 Riff 1
e|---------------------------------------------------------------------------|
B|---------------------------------------------------------------------------|
G|---------------------------------------------------------------------------|
D|-------9--7--6-----6--6--7--9--7--6-------------6/7------------------------|
A|----7-----------7--------------------7----------------------9--7-----------|
E|--0-------------------------------------9--9-9-------7-7-7-----------------|

Intro Cont: 3 times
e|---------------------------------------------------------------------------|
B|---------------------------------------------------------------------------|
G|-2-2-2-2-----------6-6-6-6--4-4-4-4----------------------------------------|
D|-2-2-2-2--2-2-2-2--6-6-6-6--4-4-4-4----------------------------------------|
A|-0-0-0-0--2-2-2-2--4-4-4-4--2-2-2-2----------------------------------------|
E|---------------------------------------------------------------------------|

Intro Cont: Play once

e|---------------------------------------------------------------------------|
B|---------------------------------------------------------------------------|
G|-2-2-2-2-----------6-6-6-6-6-6-6-6-6-6-6-6-4-4-4-4-4-4-4-4-4-4-4-4-4-------|
D|-2-2-2-2--2-2-2-2--x-x-x-x-x-x-x-x-x-x-x-x-x-x-x-x-x-x-x-x-x-x-x-x-x-------|
A|-0-0-0-0--2-2-2-2--4-4-4-4-4-4-4-4-4-4-4-4-2-2-2-2-2-2-2-2-2-2-2-2-2-------|
E|---------------------------------------------------------------------------|

e|---------------------------------------------------------------------------|
B|------------------10-----------10------------------------------------------|
G|--2-2-2-2-2-2---------9-----9------9-----9---------------------------------|
D|--2-2-2-2-2-2------------7------------7------------------------------------|
A|--0-0-0-0-0-0--------------------------------------------------------------|
E|---------------------------------------------------------------------------|
[ Tab from: http://www.guitartabs.cc/tabs/b/blink_182/wasting_time_tab_ver_4.html ]
Then Back To Riff 1: 2 Times


Verse: 4 Times

e|---------------------------------------------------------------------------|
B|---------------------------------------------------------------------------|
G|-2-2-2-2-----------6-6-6-6--4-4-4-4----------------------------------------|
D|-2-2-2-2--2-2-2-2--6-6-6-6--4-4-4-4----------------------------------------|
A|-0-0-0-0--2-2-2-2--4-4-4-4--2-2-2-2----------------------------------------|
E|---------------------------------------------------------------------------|

Chorus: 3 Times

e|---------------------------------------------------------------------------|
B|---------------------------------------------------------------------------|
G|--9-9-9-9-----------6-6-6-6------------------------------------------------|
D|--9-9-9-9--7-7-7-7--6-6-6-6--9-9-9-9---------------------------------------|
A|--7-7-7-7--7-7-7-7--4-4-4-4--9-9-9-9---------------------------------------|
E|-----------5-5-5-5-----------7-7-7-7---------------------------------------|

Then on the 4th time play this

e|---------------------------------------------------------------------------|
B|---------------------------------------------------------------------------|
G|--9-9-9-9-----------6-6-6-6-6-6-6-6-6-6-6-6-4-4-4-4-4-4-4-4-4-4-4-4--------|
D|--9-9-9-9--7-7-7-7--x-x-x-x-x-x-x-x-x-x-x-x-x-x-x-x-x-x-x-x-x-x-x-x--------|
A|--7-7-7-7--7-7-7-7--4-4-4-4-4-4-4-4-4-4-4-4-2-2-2-2-2-2-2-2-2-2-2-2--------|
E|-----------5-5-5-5---------------------------------------------------------|

e|---------------------------------------------------------------------------|
B|------------------10-----------10------------------------------------------|
G|--2-2-2-2-2-2---------9-----9------9-----9---------------------------------|
D|--2-2-2-2-2-2------------7------------7------------------------------------|
A|--0-0-0-0-0-0--------------------------------------------------------------|
E|---------------------------------------------------------------------------|

 Secomd Verse play using light to heavy palm muting. Now the number of tabs that 
are on the net that are totally wrong. I'm not saying mine os 100%, but its pretty 
close. I would appreciate some feedback as this is my first tab really. Cheers
for getting my tab and keep enjoying the music that is...PUNK

===============================================================================


Comments