Blink 182 - Wasting Time Chords & Tabs

 

Wasting Time Chords & Tabs

Blink 182 Chords & Tabs

Version: 2 Type: Tab 0 ratings
1 star 2 stars 3 stars 4 stars 5 stars
comments

Wasting Time Tab

Wasting Time
Blink-182


E|--------------------------------------------------------------------|
B|--------------------------------------------------------------------|
G|--------------------------------------------------------------------|
D|-------9-7-6--------7-7-9-7-6------6---7-6---4--4-4-4-4-------------|
A|----7--------0--7--------------4-4---4-----7------------7-7---------|
E|-0------------------------------------------------------------------|X2


E|--------------------------------------------------------------------|
B|--------------------------------------------------------------------|
G|-----------------------6-6-6--4-4-4-4-4-4-4-------------------------|
D|-7-7-7--2-2-2-2-2-2-2--6-6-6--4-4-4-4-4-4-4-------------------------|
A|-7-7-7--2-2-2-2-2-2-2--4-4-4--2-2-2-2-2-2-2-------------------------|
E|-5-5-5--0-0-0-0-0-0-0-----------------------------------------------|X3

E|--------------------------------------------------------------------|
B|--------------------------------------------------------------------|
G|-----------------------6-6-6-6-6-6-6-6-6-6-6--4-4-4-4-4-4-4-4-4-4-4-|
D|-7-7-7--2-2-2-2-2-2-2--6-6-6-6-6-6-6-6-6-6-6--4-4-4-4-4-4-4-4-4-4-4-|
A|-7-7-7--2-2-2-2-2-2-2--4-4-4-4-4-4-4-4-4-4-4--2-2-2-2-2-2-2-2-2-2-2-|
E|-5-5-5--0-0-0-0-0-0-0-----------------------------------------------|

E|-------------------------5---5---5---5------------------------------|
B|---------------------------5---5---5---5----------------------------|
G|--------------------------------------------------------------------|
D|-7-7-7-7-7-7-7-7-7-7-7----------------------------------------------|
A|-7-7-7-7-7-7-7-7-7-7-7----------------------------------------------|
E|-5-5-5-5-5-5-5-5-5-5-5----------------------------------------------|

E|--------------------------------------------------------------------|
B|--------------------------------------------------------------------|
G|--------------------------------------------------------------------|
D|-------9-7-6--------7-7-9-7-6------6---7-6---4--4-4-4-4-------------|
A|----7--------0--7--------------4-4---4-----7------------7-7---------|
E|-0------------------------------------------------------------------|X2

E|--------------------------------------------------------------------|
B|--------------------------------------------------------------------|
G|-----------------------6-6-6--4-4-4-4-4-4-4-------------------------|
D|-2-2-2--7-7-7-7-7-7-7--6-6-6--4-4-4-4-4-4-4-------------------------|
A|-2-2-2--7-7-7-7-7-7-7--4-4-4--2-2-2-2-2-2-2-------------------------|
E|-0-0-0--5-5-5-5-5-5-5-----------------------------------------------|X4
[ Tab from: http://www.guitartabs.cc/tabs/b/blink_182/wasting_time_tab_ver_2.html ]
E|--------------------------------------------------------------------|
B|--------------------------------------------------------------------|
G|-----------------------6-6-6--4-4-4-4-4-4-4-------------------------|
D|-7-7-7--2-2-2-2-2-2-2--6-6-6--4-4-4-4-4-4-4-------------------------|
A|-7-7-7--2-2-2-2-2-2-2--4-4-4--2-2-2-2-2-2-2-------------------------|
E|-5-5-5--0-0-0-0-0-0-0-----------------------------------------------|X3

E|--------------------------------------------------------------------|
B|--------------------------------------------------------------------|
G|-----------------------6-6-6-6-6-6-6-6-6-6-6--4-4-4-4-4-4-4-4-4-4-4-|
D|-7-7-7--2-2-2-2-2-2-2--6-6-6-6-6-6-6-6-6-6-6--4-4-4-4-4-4-4-4-4-4-4-|
A|-7-7-7--2-2-2-2-2-2-2--4-4-4-4-4-4-4-4-4-4-4--2-2-2-2-2-2-2-2-2-2-2-|
E|-5-5-5--0-0-0-0-0-0-0-----------------------------------------------|

E|-------------------------5---5---5---5------------------------------|
B|---------------------------5---5---5---5----------------------------|
G|--------------------------------------------------------------------|
D|-7-7-7-7-7-7-7-7-7-7-7----------------------------------------------|
A|-7-7-7-7-7-7-7-7-7-7-7----------------------------------------------|
E|-5-5-5-5-5-5-5-5-5-5-5----------------------------------------------|

E|--------------------------------------------------------------------|
B|--------------------------------------------------------------------|
G|--------------------------------------------------------------------|
D|-------9-7-6--------7-7-9-7-6------6---7-6---4--4-4-4-4-------------|
A|----7--------0--7--------------4-4---4-----7------------7-7---------|
E|-0------------------------------------------------------------------|X2

E|--------------------------------------------------------------------|
B|--------------------------------------------------------------------|
G|-----------------------6-6-6--4-4-4-4-4-4-4-------------------------|
D|-2-2-2--7-7-7-7-7-7-7--6-6-6--4-4-4-4-4-4-4-------------------------|
A|-2-2-2--7-7-7-7-7-7-7--4-4-4--2-2-2-2-2-2-2-------------------------|
E|-0-0-0--5-5-5-5-5-5-5-----------------------------------------------|X4

E|--------------------------------------------------------------------|
B|--------------------------------------------------------------------|
G|-----------------------6-6-6--4-4-4-4-4-4-4-------------------------|
D|-7-7-7--2-2-2-2-2-2-2--6-6-6--4-4-4-4-4-4-4-------------------------|
A|-7-7-7--2-2-2-2-2-2-2--4-4-4--2-2-2-2-2-2-2-------------------------|
E|-5-5-5--0-0-0-0-0-0-0-----------------------------------------------|X5

E|-------------------------5---5---5---5------------------------------|
B|---------------------------5---5---5---5----------------------------|
G|--------------------------------------------------------------------|
D|-7-7-7-7-7-7-7-7-7-7-7----------------------------------------------|
A|-7-7-7-7-7-7-7-7-7-7-7----------------------------------------------|
E|-5-5-5-5-5-5-5-5-5-5-5----------------------------------------------|

E|--------------------------------------------------------------------|
B|--------------------------------------------------------------------|
G|--------------------------------------------------------------------|
D|-------9-7-6--------7-7-9-7-6------6---7-6---4--4-4-4-4-------------|
A|----7--------0--7--------------4-4---4-----7------------7-7---------|
E|-0------------------------------------------------------------------|X4

End on A5.
Comments