Blink 182 - Waggy Chords & Tabs

 

Waggy Chords & Tabs

Blink 182 Chords & Tabs

Version: 3 Type: Tab 0 ratings
1 star 2 stars 3 stars 4 stars 5 stars
comments

Waggy Tab

   
Sure as hell more accurate than them other tabs yarha!

INTRO
RIFF B
|-------------|
|-------------|
|-------------|
|---7-6----76-|2X
|-0------0----|
|-------------|
RIFF A
|----------------------------------|
|----------------------------------|
|-66666666/9-7-6-7-9-6------7-9-6~-|
|-xxxxxxxx/x-x-x-x-x-x-6666-x-x-x--|
|-44444444/7-5-4-5-7-4-xxxx-5-7-4~-|
|----------------------4444--------|

VERSE
"WATCHING YOUR HOUSE.."
PLAY RIFF B

"I'M TRYING.."
|--------------|
|--------------|
|---------6666-|
|-6~-6666-xxxx-|
|-6~-xxxx-4444-|
|-4~-4444------|
"BUT ITS SO.."
|-----|
|-----|
|-----|
|-6~~-|
|-6~~-|
|-4~~-|
"FOOL WEEK AFTER.."
|-------------------|
|-------------------|
|----------66666666-|
|-66666666-xxxxxxxx-|
|-xxxxxxxx-44444444-|
|-44444444----------|
[ Tab from: http://www.guitartabs.cc/tabs/b/blink_182/waggy_tab_ver_3.html ]
CHORUS
"I THINK YOU..."
|-------------------------|
|------66666666-444444444-|
|------xxxxxxxx-xxxxxxxxx-|
|-7777-44444444-222222222-|
|-7777--------------------|
|-5555--------------------|
"YOU SAY YOU.."
|-------------------------|
|------66666666-777777777-|
|------xxxxxxxx-xxxxxxxxx-|
|-7777-44444444-555555555-|
|-7777--------------------|
|-5555--------------------|
"OPEN YOUR EYES.."
|-------------------------|
|------66666666-444444444-|
|------xxxxxxxx-xxxxxxxxx-|
|-7777-44444444-222222222-|
|-7777--------------------|
|-5555--------------------|
"YOU CAN LIVE.."
|----------------|
|------444444444-|
|------xxxxxxxxx-|
|-7777-222222222-|
|-7777-----------|
|-5555-----------|

PREVERSE
PLAY RIFF A 2X

VERSE
(REPEAT EVERYTHING FROM FIRST VERSE)

CHORUS
(REPEAT EVERYTHING FROM FIRST CHORUS)

SOLO
|--------|
|--------|
|--------|
|-55--33-|
|-55--33-|
|-33--11-|
  ..  ..
|---------------------------------------|
|---------------------------------------|
|---------------------------------------|
|-0-4h5p0-4h5p0-4h5p0-4h5p0-4h5p0-4h5p0-|
|---------------------------------------|
|---------------------------------------|

ENDING
PLAY RIFF A 2X

PLAY RIFF B TIL THE END
Comments