Blink 182 - Waggy Chords & Tabs

 

Waggy Chords & Tabs

Blink 182 Chords & Tabs

Version: 2 Type: Tab 0 ratings
1 star 2 stars 3 stars 4 stars 5 stars
comments

Waggy Tab

   
Artist: Blink 182
Song: Waggy
Album: Dude Ranch
Tabbed by: Andrew Lassise

Intro
E|---------------------------------------|
B|---------------------------------------|
G|---7-6----6-7-6----7-6---6-7-6---------|
D|---------------------------------------|
A|-0------0--------0-----0---------------|
E|---------------------------------------|

E|---------------------------------------|
B|---------------------------------------|
G|-666666666-9-7-6-7-9------7-9----------|
D|-xxxxxxxxx-x-x-x-x-x-7777-x-x-7777-----|
A|-444444444-7-5-4-5-7-xxxx-5-7-xxxx-----|
E|---------------------5555-----5555-----|

Verse
E|---------------------------------------|
B|---------------------------------------|
G|---7-6---6-7-6---7-6---6-7-6-----------|
D|---------------------------------------|
A|-0-------0------0-----0----------------|
E|---------------------------------------|
Watching your house shrink away in my rear view mirror as I drive away
wishing that I could take back all those words that meant nothing that I didn't say

A          F#                        D 
i'm trying to be what you want me to be 
A 
but its so damn hard to keep playing the part of the 
F#              D 
fool week after week 

Chorus
F#          D              B 
i think you need some time alone 
F#          D               A 
you say you want someone to call your own 
F#        D            B 
open your eyes you can suck in your pride 
F#                     D 
you can live your life all on your own 

E|---------------------------------------|
B|---------------------------------------|
G|-666666666-9-7-6-7-9------7-9----------|
D|-xxxxxxxxx-x-x-x-x-x-7777-x-x-7777-----|
A|-444444444-7-5-4-5-7-xxxx-5-7-xxxx-----|
E|---------------------5555-----5555-----|



[ Tab from: http://www.guitartabs.cc/tabs/b/blink_182/waggy_tab_ver_2.html ]
Verse
E|---------------------------------------|
B|---------------------------------------|
G|---7-6---6-7-6---7-6---6-7-6-----------|
D|---------------------------------------|
A|-0-------0------0-----0----------------|
E|---------------------------------------|

Is this all going to be just another time
That we play this game?
I've tried to convince you that things could be different
But somehow they end up the same

A                            F#                        D
But what did you expect from me? What am I supposed to do?
A                                                        F#
You say that you're starting to feel like you're getting lost
            D
Well, I do, too

F#             D            B
I don't wanna live this lie again
F#          D                             A     
I know I'll get it right but I don't know when
F#           D              B
I'll open my eyes, I've got something inside
F#                       D
I'll just jack off in my room until then


Solo
E|-------------------------------------------|
B|-------------------------------------------|
G|-------------------------------------------|
D|-77-55-------------------------------------|
A|-77-55-0-4h0-5h0-4h0-5h0-4h0-5h0-4h0-5h0---|
E|-55-22-------------------------------------|
pm:.. ..

Outro
E|---------------------------------------|x2
B|---------------------------------------|
G|-666666666-9-7-6-7-9------7-9----------|
D|-xxxxxxxxx-x-x-x-x-x-7777-x-x-7777-----|
A|-444444444-7-5-4-5-7-xxxx-5-7-xxxx-----|
E|---------------------5555-----5555-----|
It's never over 'till its done.
And I don't think that you're the one  x4

E|---------------------------------------|
B|---------------------------------------|
G|---7-6---6-7-6---7-6---6-7-6-----------|
D|---------------------------------------|
A|-0-------0------0-----0----------------|
E|---------------------------------------|



End on A
Comments