Blink 182 - Waggy Chords & Tabs

 

Waggy Chords & Tabs

Blink 182 Chords & Tabs

Version: 1 Type: Tab 0 ratings
1 star 2 stars 3 stars 4 stars 5 stars
comments

Waggy Tab

   
Song: Waggy
Artist: Blink 182
Tuning: Standard (E,A,D,G,B,E)
ftolone@hotmail.com

CHORDS 
A F# B D 
|----------------------| 
|----------------------| 
|-------------4-----7--| 
|---7----4----4-----7--| 
|---7----4----2-----5--| 
|---5----2-------------| 

Riff A: 
|---------| 
|---------| 
|----7-6--| 
|---------| 
|--0------| 
|---------| 

Riff B: 
|-------------------------------------------------| 
|-------------------------------------------------| 
|--6-6-6-6-6-6-6-6-6-6-6-6-6-9-7-6-7-9------------| 
|--6-6-6-6-6-6-6-6-6-6-6-6-6-9-7-6-7-9-7-7-7-7-7--| 
|--4-4-4-4-4-4-4-4-4-4-4-4-4-7-5-4-5-7-7-7-7-7-7--| 
|--------------------------------------5-5-5-5-5--| 

|----------------| 
|----------------| 
|--7-9-----------| 
|--7-9-7-7-7-7-7-| 
|--5-7-7-7-7-7-7-| 
|------5-5-5-5-5-| 

Intro: 
Riff A (x4) 
Riff B (x2) 
[ Tab from: http://www.guitartabs.cc/tabs/b/blink_182/waggy_tab.html ]
Verse1: 
(with Riff A) 
watching your house shrink away in my rearview mirror 
as i drive away 
wishing that i could take back all those words that meant nothing 
that i didnt say 

A F# D 
i'm trying to be what you want me to be 
A 
but its so damn hard to keep playing the part of the 
F# D 
fool week after week 

CHORUS1: 
F# D B 
i think you need some time alone 
F# D A 
you say you want someone to call your own 
F# D B 
open your eyes you can suck in your pride 
F# D 
you can live your life all on your own 

Riff B (x2) 

Verse 

CHORUS 

Before solo goes
-----------------------------------------
-----------------------------------------
-----------------------------------------    palm muted
--7-7----4-4-----------------------------
--7-7----4-4-----------------------------
--5-5----2-2-----------------------------

Solo
-----------------------------------------
-----------------------------------------
-----------------------------------------
-----------------------------------------     repeat this
0-0-4p0-5p0-4p0---5p0-4p0----------------     until
-----------------------------------------     necessary


Riff A

End on A
Comments