Blink 182 - Waggy Chords & Tabs

 

Waggy Chords & Tabs

Blink 182 Chords & Tabs

Version: 4 Type: Bass Tab 0 ratings
1 star 2 stars 3 stars 4 stars 5 stars
comments

Waggy Bass Tab

   
Waggy - Dude Ranch - Blink 182 - Bass Tab
[ Tab from: http://www.guitartabs.cc/tabs/b/blink_182/waggy_btab_ver_4.html ]
Intro - Main Riff
G----------------------------------------------------------------
D----------------------------------------------------------------
A-0-0-0-0-0-0-0-0-0-0-0-0-0-0-0-0-9-9-9-9-9-9-9-9-5-5-5-5-5-5-5-5
E--------------------------------------------------------------2x
Verse
G----------------------------------------------------------------
D----------------------------------------------------------------
A-0-0-0-0-0-0-0-0-0-0-0-0-0-0-0-0-9-9-9-9-9-9-9-9-5-5-5-5-5-5-5-5
E--------------------------------------------------------------4x
Chorus                                            1st time, 2nd time-MR 
G-------------------------------------------------|--------------
D-------------------------------------------------|--------------
A---------5-5-5-5-2-2-2-2-2-2-2-2---------5-5-5-5-|-0-0-0-0-0-0-0
E-2-2-2-2-------------------------2-2-2-2---------|------------2x
Interlude 1 and 2
G----------------------------------------------------------------
D----------------------------------------------------------------
A-0-0-0-0-0-0-0-0-0-0-0-0-0-0-0-0-9-9-9-9-9-9-9-9-5-5-5-5-5-5-5-5
E--------------------------------------------------------------4x

End On Open A
Comments