Blink 182 - Voyeur Chords & Tabs

 

Voyeur Chords & Tabs

Blink 182 Chords & Tabs

Version: 4 Type: Tab 0 ratings
1 star 2 stars 3 stars 4 stars 5 stars
comments

Voyeur Tab

band:blink 182
song:voyeur
album:dude ranch
guitarist:Tom delonge
tabbed by josh broad
email me with any comments at, smelinem@yahoo.co.uk

INTRO/VERSE 1

e]---------------------------------------------------------
b]---------------------------------------------------------
g]-5-555555-55555555---------------------------------------
d]-5-555555-55555555-7-7777777-3-3333333-----(x2)----------
a]-3-333333-33333333-7-7777777-3-3333333-------------------
e]-------------------5-5555555-1-1111111-------------------
pm   ...... ........   .......   .......

e]---------------------------------------------------------
b]---------------------------------------------------------
g]-5-555555-55555555---------------------------------------
d]-5-555555-55555555-7-7777777-3-3333333-----(x2)----------
a]-3-333333-33333333-7-7777777-3-3333333-------------------
e]-------------------5-5555555-1-1111111-------------------

e]---------------------------------------------------------
b]---------------------------------------------------------
g]---------------------------------------------------------
d]-33333333-33333333-55555555-33333333---------------------
a]-33333333-33333333-55555555-33333333---------------------
e]-11111111-11111111-33333333-11111111---------------------

e]---------------------------------------------------------
b]---------------------------------------------------------
g]---------------------------------------------------------
d]-2222-3--2222-5------------------------------------------
a]-3333-3--3333-5------------------------------------------
e]--------------3------------------------------------------

CHORUS

e]---------------------------------------------------------------
b]---------------------------------------------------------------
g]-------------------55555555------------------------------------
d]-55555555-33333333-55555555-55555555--(x2)-55555555-33333333---
a]-55555555-33333333-33333333-55555555-------55555555-33333333---
e]-33333333-11111111----------33333333-------33333333-11111111---

e]---------------------------------------------------------
b]---------------------------------------------------------
g]---------------------------------------------------------
d]-2222-3--2222-5----(x2)----------------------------------
a]-3333-3--3333-5------------------------------------------
e]--------------3------------------------------------------

VERSE 2

e]---------------------------------------------------------
b]---------------------------------------------------------
g]-5-555555-55555555---------------------------------------
d]-5-555555-55555555-7-7777777-3-3333333-----(x2)----------
a]-3-333333-33333333-7-7777777-3-3333333-------------------
e]-------------------5-5555555-1-1111111-------------------
pm   ...... ........   .......   .......

e]---------------------------------------------------------
b]---------------------------------------------------------
g]-5-555555-55555555---------------------------------------
d]-5-555555-55555555-7-7777777-3-3333333-----(x2)----------
a]-3-333333-33333333-7-7777777-3-3333333-------------------
e]-------------------5-5555555-1-1111111-------------------

e]---------------------------------------------------------
b]---------------------------------------------------------
g]---------------------------------------------------------
d]-33333333-33333333-55555555-33333333---------------------
a]-33333333-33333333-55555555-33333333---------------------
e]-11111111-11111111-33333333-11111111---------------------

e]---------------------------------------------------------
b]---------------------------------------------------------
g]---------------------------------------------------------
d]-2222-3--2222-5------------------------------------------
a]-3333-3--3333-5------------------------------------------
e]--------------3------------------------------------------

CHORUS
[ Tab from: http://www.guitartabs.cc/tabs/b/blink_182/voyeur_tab_ver_4.html ]
e]---------------------------------------------------------------
b]---------------------------------------------------------------
g]-------------------55555555------------------------------------
d]-55555555-33333333-55555555-55555555--(x2)-55555555-33333333---
a]-55555555-33333333-33333333-55555555-------55555555-33333333---
e]-33333333-11111111----------33333333-------33333333-11111111---

e]---------------------------------------------------------
b]---------------------------------------------------------
g]---------------------------------------------------------
d]-2222-3--2222-5----(x2)----------------------------------
a]-3333-3--3333-5------------------------------------------
e]--------------3------------------------------------------

e]----------------------------------------------------------------
b]----------------------------------------------------------------
g]-55555555-------------------------------------------------------
d]-55555555-33333333-55555555-33333333--(x4)-55555555-55555555----
a]-33333333-33333333-55555555-33333333-------55555555-55555555----
e]----------11111111-33333333-11111111-------33333333-33333333----

VERSE 3

e]---------------------------------------------------------
b]---------------------------------------------------------
g]-5-555555-55555555---------------------------------------
d]-5-555555-55555555-7-7777777-3-3333333-----(x2)----------
a]-3-333333-33333333-7-7777777-3-3333333-------------------
e]-------------------5-5555555-1-1111111-------------------
pm   ...... ........   .......   .......

e]---------------------------------------------------------
b]---------------------------------------------------------
g]-5-555555-55555555---------------------------------------
d]-5-555555-55555555-7-7777777-3-3333333-----(x2)----------
a]-3-333333-33333333-7-7777777-3-3333333-------------------
e]-------------------5-5555555-1-1111111-------------------

e]---------------------------------------------------------
b]---------------------------------------------------------
g]---------------------------------------------------------
d]-33333333-33333333-55555555-33333333---------------------
a]-33333333-33333333-55555555-33333333---------------------
e]-11111111-11111111-33333333-11111111---------------------

e]---------------------------------------------------------
b]---------------------------------------------------------
g]---------------------------------------------------------
d]-2222-3--2222-5------------------------------------------
a]-3333-3--3333-5------------------------------------------
e]--------------3------------------------------------------

CHORUS

e]---------------------------------------------------------------
b]---------------------------------------------------------------
g]-------------------55555555------------------------------------
d]-55555555-33333333-55555555-55555555--(x2)-55555555-33333333---
a]-55555555-33333333-33333333-55555555-------55555555-33333333---
e]-33333333-11111111----------33333333-------33333333-11111111---

e]---------------------------------------------------------
b]---------------------------------------------------------
g]---------------------------------------------------------
d]-2222-3--2222-5----(x2)----------------------------------
a]-3333-3--3333-5------------------------------------------
e]--------------3------------------------------------------

e]----------------------------------------------------------------
b]----------------------------------------------------------------
g]-55555555-------------------------------------------------------
d]-55555555-33333333-55555555-33333333--(x4)-55555555-55555555----
a]-33333333-33333333-55555555-33333333-------55555555-55555555----
e]----------11111111-33333333-11111111-------33333333-33333333----

outro

e]-----------------------------------------------------------
b]-----------------------------------------------------------
g]-----------------------55-------5--------------------------
d]-3--bit of bass-----33-55-55--3-5-5---(x4)-----------------
a]-3------------------33-33-55--3-3-5------------------------
e]-1------------------11----33--1---3------------------------

e]----------------------------------------------------------------
b]----------------------------------------------------------------
g]--------------------------------5-------------------------------
d]-2222-3--2222-5--2222-3--2222-5-5-------------------------------
a]-3333-3--3333-5--3333-3--3333-5-3-------------------------------
e]--------------3---------------3---------------------------------
Comments