Blink 182 - Violence Chords & Tabs

 

Violence Chords & Tabs

Blink 182 Chords & Tabs

Version: 9 Type: Tab 0 ratings
1 star 2 stars 3 stars 4 stars 5 stars
comments

Violence Tab

This is violence by blink 182. All the other tabs right now for this song,
which is like 6, arnt right.  This tab is alot more correct, just about perfect.

Intro (X3)....Bend these notes like crazy...Find the pattern, its easy 
E----------------------------------------------------------------
B----------------------------------------------------------------
G----------------------------------------------------------------
D-----------------------9-9-9-9  only play this part the first---
A-----------------(X4)--9-9-9-9  two times-----------------------
E---7-7-7-7-7-7-7-------7-7-7-7----------------------------------

Intro Part Two (X2)
E----------------------------------------------------------------
B----------------------------------------------------------------
G--444444444444-666666666666-------------------------------------
D--444444444444-666666666666-666666666666-888888888888-----------
A--222222222222-444444444444-666666666666-888888888888-----------
E----------------------------444444444444-666666666666-----------

Verse 1
-No Guitar-
[ Tab from: http://www.guitartabs.cc/tabs/b/blink_182/violence_tab_ver_9.html ]
Chorus (X2)
E----------------------------------------------------------------
B----------------------------------------------------------------
G--444444444444-666666666666-------------------------------------
D--444444444444-666666666666-666666666666-888888888888-----------
A--222222222222-444444444444-666666666666-888888888888-----------
E----------------------------444444444444-666666666666-----------

Verse 2
-No Guitar-

Chorus (X2)

Interlude (X5)
E----------------------------------------------------------------
B----------------------------------------------------------------
G----------------------------------------------------------------
D----4--4-4--4--4-4--4--4-4--4--4-4------------------------------
A--22-22-2-44-44-4-----------------------------------------------
E------------------44-44-4-00-00-0-------------------------------

Chorus (X4)

Outro....just like the intro, bend these notes
E----------------------------------------------------------------
B----------------------------------------------------------------
G----------------------------------------------------------------
D----------------------------------------------------------------
A----------------------------------------------------------------
E--7-7-7-7-7-7-7-7-7--fades out....------------------------------

The rest of the song, the whole talking part, is all piano. Enjoy!
Comments