Blink 182 - Violence Chords & Tabs

 

Violence Chords & Tabs

Blink 182 Chords & Tabs

Version: 8 Type: Tab 0 ratings
1 star 2 stars 3 stars 4 stars 5 stars
comments

Violence Tab

Title: Violence
Artist: Blink 182
Tabb BY: Daniel "Arnni" Greenwood
Date: 17/11/03 <- UK date

Well words on the New album 

Very Diffrent from pervous albums 1 thing i noticed is that it sounds
very alot like Box Car racer. Now don't get me wrong 

Box Car are good But it just sounds alot with it. Mark doesn't seem to get much
vocals now as before. seems tom took over, 

but i prefer tom singing to mark No offense mark :P Joke. Can i here your veiws?
please post comments and rate this please

Me on violence
Fav song on the new album took me 2 hours of listening it. I feel the other song
that have been posted before the release 

date were not done properly due to poor copies. Now i know people have been
saying capo but i tabb this as normal tuning so 

please don't have a go at me. This is My first Blink Tab usely i do placebo but,
decided to do blink cos the new album out.


Note: 2 guitars On recorded but you can still play B chord without any hastle


      
Intro 

Guitar 1

The first guitar play the B note while bending at the same time

e|------------------------------------------------------------|  
B|------------------------------------------------------------|  
G|------------------------------------------------------------| 
D|------------------------------------------------------------|  
A|------------------------------------------------------------| 
E|---7b7b7b7b7b7b7b7------------------------------------------| 

Guitar 2
 
Then the bass and 2nd guitar come in then Play the B5 power chord     
e|-----------------------------------------------------------|
B|-----------------------------------------------------------|
G|-----------------------------------------------------------|
D|---99999---------------------------------------------------|
A|---99999---------------------------------------------------|
E|---77777---------------------------------------------------|

Interlude

e|-----------------------------------------------------------|
B|-----------------------------------------------------------|
G|---9-9-9-9-9---11-11-11-11-11--------------------8-8-8-8---|
D|---9-9-9-9-9---11-11-11-11-11--11-11-11-11-11----8-8-8-8---|
A|---7-7-7-7-7----9--9--9--9--9--11-11-11-11-11----6-6-6-6---|
E|-------------------------------9--9--9--9--9---------------|

Verse 1

No Guitar

just drums

Six bottles went down the drain
One hour's a waste of time
I'd ask if you feel the same
Still pushin' that chance to try
Your breath is this cool room chill
Long hair that blows side to side
You speak and make time stand still
And each time you walk right on by


Chorus
[ Tab from: http://www.guitartabs.cc/tabs/b/blink_182/violence_tab_ver_8.html ]
e|-----------------------------------------------------------|
B|-----------------------------------------------------------|
G|---9-9-9-9-9---11-11-11-11-11--------------------8-8-8-8---|
D|---9-9-9-9-9---11-11-11-11-11--11-11-11-11-11----8-8-8-8---|
A|---7-7-7-7-7----9--9--9--9--9--11-11-11-11-11----6-6-6-6---|
E|-------------------------------9--9--9--9--9---------------|
    Like violence you have me     forever   and    after
e|-----------------------------------------------------------|
B|-----------------------------------------------------------|
G|---9-9-9-9-9---11-11-11-11-11--------------------8-8-8-8---|
D|---9-9-9-9-9---11-11-11-11-11--11-11-11-11-11----8-8-8-8---|
A|---7-7-7-7-7----9--9--9--9--9--11-11-11-11-11----6-6-6-6---|
E|-------------------------------9--9--9--9--9---------------|
   Like violence you kill me     forever    and    after


Verse 2

No guitar

just drums

Can't count all the eyes that stare,
Can't count all the things they see,
She kills with no life to spare,
Just victims were left to bleed,
One drink and the pain goes down,
Soft shadows lay by her feet,
Lay soft as you slowly drown,
Lay still as you fall asleep... fall asleep.

Chorus

e|-----------------------------------------------------------|
B|-----------------------------------------------------------|
G|---9-9-9-9-9---11-11-11-11-11--------------------8-8-8-8---|
D|---9-9-9-9-9---11-11-11-11-11--11-11-11-11-11----8-8-8-8---|
A|---7-7-7-7-7----9--9--9--9--9--11-11-11-11-11----6-6-6-6---|
E|-------------------------------9--9--9--9--9---------------|
    Like violence you have me     forever   and    after
e|-----------------------------------------------------------|
B|-----------------------------------------------------------|
G|---9-9-9-9-9---11-11-11-11-11--------------------8-8-8-8---|
D|---9-9-9-9-9---11-11-11-11-11--11-11-11-11-11----8-8-8-8---|
A|---7-7-7-7-7----9--9--9--9--9--11-11-11-11-11----6-6-6-6---|
E|-------------------------------9--9--9--9--9---------------|
   Like violence you kill me     forever    and    after

Interlude

Interlude pick the root note first then the 9th fret , slide down from the 6 fret
while picking the 9 fret you will 

understand when you try it

e|------------------------------------------------------------|  
B|------------------------------------------------------------|  
G|------------------------------------------------------------| 
D|------------------------------------------------------------|  
A|----9-9---9-9-----9-9----9-9------9-9-------9-9------9-9----| 
E|--7-----7-----6/7----6/7------6/7-------6/7-------6/7-------| 

Chorus

e|-----------------------------------------------------------|
B|-----------------------------------------------------------|
G|---9-9-9-9-9---11-11-11-11-11--------------------8-8-8-8---|
D|---9-9-9-9-9---11-11-11-11-11--11-11-11-11-11----8-8-8-8---|
A|---7-7-7-7-7----9--9--9--9--9--11-11-11-11-11----6-6-6-6---|
E|-------------------------------9--9--9--9--9---------------|
    Like violence you have me     forever   and    after
e|-----------------------------------------------------------|
B|-----------------------------------------------------------|
G|---9-9-9-9-9---11-11-11-11-11--------------------8-8-8-8---|
D|---9-9-9-9-9---11-11-11-11-11--11-11-11-11-11----8-8-8-8---|
A|---7-7-7-7-7----9--9--9--9--9--11-11-11-11-11----6-6-6-6---|
E|-------------------------------9--9--9--9--9---------------|
   Like violence you kill me     forever    and    after

Outro
 
End on B
then wait for 2 seconds then play the next bit
e|------P-----------------------------------------------------|
B|------a-----------------------------------------------------|
G|------u-----------------------------------------------------|
D|---9--s-----------------------------------------------------|
A|---9--e-----------------------------------------------------|
E|---7-----7b7b7b7b7b7b7b7b7b7b7b7----------------------------|
Comments