Blink 182 - Violence Chords & Tabs

 

Violence Chords & Tabs

Blink 182 Chords & Tabs

Version: 4 Type: Tab 0 ratings
1 star 2 stars 3 stars 4 stars 5 stars
comments

Violence Tab

hey i saw the other tab and thought it was awful, so i sat down with my acoustic
and figured it out, im pretty sure its correct about 80%, but im not the greatest
guitarist so some of it may be incorrect, but it sounds fine to me.... 

intro start playing at 0:15 (x2)
E------------------------------
B------------------------------
G--4444444444444444444444-4444-
D--xxxxxxxxxxxxxxxxxxxxxx-4444-
A--2222222222222222222222-2222-
E------------------------------
  + -------clean--------+ distorted

intro part 2 (x2) 0:40
E---------------------------
B---------------------------
G--4444--6666---------------
D--4444--6666--6666--2222---
A--2222--4444--6666--2222---
E--------------4444--0000---

verse1 no guitar
[ Tab from: http://www.guitartabs.cc/tabs/b/blink_182/violence_tab_ver_4.html ]
chorus 1 (x2)
E-----------------------------
B-----------------------------
G--4444--6666-----------------
D--4444--6666--6666--2222-----
A--2222--4444--6666--2222-----
E--------------4444--0000-----

verse 2 (no guitar)

chorus 2 (x2)
E-----------------------------
B-----------------------------
G--4444--6666-----------------
D--4444--6666--6666--2222-----
A--2222--4444--6666--2222-----
E--------------4444--0000-----

interlude 2:14 repeat a couple of times
E----------------------------------------
B----------------------------------------
G----4----4---6----6-------------9----9--
D---4-4--4-4-6-6--6-6--6----6---9-9--9-9-
A--2----2---4----4----6-6--6-6-7----7----
E--------------------4----4--------------

chorus (x4)
E-----------------------------
B-----------------------------
G--4444--6666-----------------
D--4444--6666--6666--2222-----
A--2222--4444--6666--2222-----
E--------------4444--0000-----

outro

repeat intro without distorted part


i'm about 80% sure this is correct, its a great song! new albums gonna be blinding.

charlie dg 

www.loks.tk // my punk rocking band
Comments