Blink 182 - Violence Chords & Tabs

 

Violence Chords & Tabs

Blink 182 Chords & Tabs

Version: 13 Type: Tab 0 ratings
1 star 2 stars 3 stars 4 stars 5 stars
comments

Violence Tab

   
                                 VIOLENCE
                            As recorded by Blink 182
                         (From the 2003 Album BLINK 182)

Words and Music by Mark, Tom, & Travis
Arranged by Mark, Tom, & Travis
Transcribed by PunKKiD182

          C5                   G/B
    x x 10 12 13 x        x x 9 12 12 x

Gtr I (C# F# B E G# C#) - 'Clean'
Gtr II (C# F# B E G# C#) - 'Distortion'
Gtr III (C# F# B E G# C#) - 'Overdrive'
Gtr IV (E A D G B E) - 'Noise'
Gtr V (Eb Ab Db Gb Bb Eb) - 'Celestial Tone'
Gtr VI (C# F# B E G# C#) - 'Untitled'

 Intro
  Q=238
  N.C.
 1/4 4/4
  Gtr I
|---|-----|
|---|-----|
|---|-----|
|---|-----|
|---|-----|
|---|-----|


||----------------------------------|-----------------------------|
||o---------------------------------|-----------------------------|
||----------------------------------|-----------------------------|
||----------------------------------|-----------------------------|
||o-5b6r(5)-5b6r5-(5)b6r(5)-5b6r(5)-|-5b6r5-5b6r(5)-5b6r(5)-5b6r5-|
||----------------------------------|-----------------------------|


|---------------------------------|------------------------------||
|---------------------------------|-----------------------------o||
|---------------------------------|------------------------------||
|---------------------------------|------------------------------||
|-5b6r(5)-5b6r5-(5)b6r(5)-5b6r(5)-|-5b6r5-5b6r(5)-5b6r(5)-5b6r5-o||
|---------------------------------|------------------------------||


    D5/A
||----------------------------------|-----------------------------|
||o---------------------------------|-----------------------------|
||----------------------------------|-----------------------------|
||----------------------------------|-----------------------------|
||o-5b6r(5)-5b6r5-(5)b6r(5)-5b6r(5)-|-5b6r5-5b6r(5)-5b6r(5)-5b6r5-|
||----------------------------------|-----------------------------|
|
|   Gtr II
||----------------------------------|-----------------------------|
||o---------------------------------|-----------------------------|
||--7-------7---7-(7)----7--7-------|-----------------------------|
||--x-------x---x--------x--x-------|-----------------------------|
||o-5-------5---5-(5)----5--5-------|-----------------------------|
||--5-------5---5-(5)----5--5-------|-----------------------------|


|---------------------------------|-----------------------------|
|---------------------------------|-----------------------------|
|---------------------------------|-----------------------------|
|---------------------------------|-----------------------------|
|-5b6r(5)-5b6r5-(5)b6r(5)-5b6r(5)-|-5b6r5-5b6r(5)-5b6r(5)-5b6r5-|
|---------------------------------|-----------------------------|
|
|---------------------------------|-----------------------------|
|---------------------------------|-----------------------------|
|---------------------------------|-----------------------------|
|---------------------------------|-----------------------------|
|---------------------------------|-----------------------------|
|---------------------------------|-----------------------------|


|---------------------------------|-----------------------------|
|---------------------------------|-----------------------------|
|---------------------------------|-----------------------------|
|---------------------------------|-----------------------------|
|-5b6r(5)-5b6r5-(5)b6r(5)-5b6r(5)-|-5b6r5-5b6r(5)-5b6r(5)-5b6r5-|
|---------------------------------|-----------------------------|


|---------------------------------|-------------------------------||
|---------------------------------|------------------------------o||
|---------------------------------|-------------------------------||
|---------------------------------|-------------------------------||
|-5b6r(5)-5b6r5-(5)b6r(5)-5b6r(5)-|-5b6r5-5b6r(5)-5b6r(5)-5b6r5--o||
|---------------------------------|-------------------------------||


   Pre-Verse
    D5/A                             E
    Gtr III
||-----------------|---------------|----------------|---------------|
||o----------------|---------------|----------------|---------------|
||--7--7-7-(7)--7--|-7-7-7--7------|-9--9-9-(9)--9--|-9-9-9--9------|
||--x--x-x------x--|-x-x-x--x------|-x--x-x------x--|-x-x-x--x------|
||o-5--5-5-(5)--5--|-5-5-5--5--0-0-|-7--7-7-(7)--7--|-7-7-7--7--0-0-|
||-----------------|---------------|----------------|---------------|
|
|   Gtr II
||-----------------|---------------|----------------|---------------|
||o----------------|---------------|----------------|---------------|
||--7--7-7-(7)--7--|-7-7-7--7--7---|-7--7-7-(7)--7--|-7-7-7--7--7---|
||--x--x-x------x--|-x-x-x--x--x---|-x--x-x------x--|-x-x-x--x--x---|
||o-5--5-5-(5)--5--|-5-5-5--5--5---|-5--5-5-(5)--5--|-5-5-5--5--5---|
||--5--5-5-(5)--5--|-5-5-5--5--5---|-5--5-5-(5)--5--|-5-5-5--5--5---|


  Bm                               A/C#
|----------------|---------------|----------------|-----------------||
|----------------|---------------|----------------|----------------o||
|-4--4-4-(4)--4--|-4-4-4--4------|-6--6-6-(6)--6--|-6-6-6--6--------||
|-x--x-x------x--|-x-x-x--x------|-x--x-x------x--|-x-x-x--x--------||
|-2--2-2-(2)--2--|-2-2-2--2--0-0-|-4--4-4-(4)--4--|-4-4-4--4--0-0--o||
|----------------|---------------|----------------|-----------------||
|
|----------------|---------------|----------------|-----------------||
|----------------|---------------|----------------|----------------o||
|-7--7-7-(7)--7--|-7-7-7--7--7---|-7--7-7-(7)--7--|-7-7-7--7--7-----||
|-x--x-x------x--|-x-x-x--x--x---|-x--x-x------x--|-x-x-x--x--x-----||
|-5--5-5-(5)--5--|-5-5-5--5--5---|-5--5-5-(5)--5--|-5-5-5--5--5----o||
|-5--5-5-(5)--5--|-5-5-5--5--5---|-5--5-5-(5)--5--|-5-5-5--5--5-----||


  $
  N.C.
  Gtr IV
|----------|------------|------------|-----||
|----------|------------|------------|-----||
|----------|------------|------------|-----||
|-0--------|-(0)--------|-(0)--------|-----||
|-2--------|-(2)--------|-(2)--------|-----||
|----------|------------|------------|-----||


   Verse
    Gtr I
                                                4x
||------------|----------|-----------|----------||-----||
||o-----------|----------|-----------|---------o||-----||
||------------|----------|-----------|----------||-----||
||------------|----------|-----------|----------||-----||
||o-------x-x-|-------x--|-------x-x-|---------o||-----||
||------------|----------|-----------|----------||-----||


   Chorus
    D5/A                             E
    Gtr III
||-----------------|---------------|----------------|---------------|
||o----------------|---------------|----------------|---------------|
||--7--7-7-(7)--7--|-7-7-7--7------|-9--9-9-(9)--9--|-9-9-9--9------|
||--x--x-x------x--|-x-x-x--x------|-x--x-x------x--|-x-x-x--x------|
||o-5--5-5-(5)--5--|-5-5-5--5--0-0-|-7--7-7-(7)--7--|-7-7-7--7--0-0-|
||-----------------|---------------|----------------|---------------|
|
|   Gtr II
||-----------------|---------------|----------------|---------------|
||o----------------|---------------|----------------|---------------|
||--7--7-7-(7)--7--|-7-7-7--7--7---|-7--7-7-(7)--7--|-7-7-7--7--7---|
||--x--x-x------x--|-x-x-x--x--x---|-x--x-x------x--|-x-x-x--x--x---|
||o-5--5-5-(5)--5--|-5-5-5--5--5---|-5--5-5-(5)--5--|-5-5-5--5--5---|
||--5--5-5-(5)--5--|-5-5-5--5--5---|-5--5-5-(5)--5--|-5-5-5--5--5---|


                                                    D.S. al Coda
                                                    D.S. al Coda
  Bm                               A/C#
|----------------|---------------|----------------|-----------------||
|----------------|---------------|----------------|----------------o||
|-4--4-4-(4)--4--|-4-4-4--4------|-6--6-6-(6)--6--|-6-6-6--6--------||
|-x--x-x------x--|-x-x-x--x------|-x--x-x------x--|-x-x-x--x--------||
|-2--2-2-(2)--2--|-2-2-2--2--0-0-|-4--4-4-(4)--4--|-4-4-4--4--0-0--o||
|----------------|---------------|----------------|-----------------||
|
|----------------|---------------|----------------|-----------------||
|----------------|---------------|----------------|----------------o||
|-7--7-7-(7)--7--|-7-7-7--7--7---|-7--7-7-(7)--7--|-7-7-7--7--7-----||
|-x--x-x------x--|-x-x-x--x--x---|-x--x-x------x--|-x-x-x--x--x-----||
|-5--5-5-(5)--5--|-5-5-5--5--5---|-5--5-5-(5)--5--|-5-5-5--5--5----o||
|-5--5-5-(5)--5--|-5-5-5--5--5---|-5--5-5-(5)--5--|-5-5-5--5--5-----||


 Bridge
  &
  C5                            G/B
  Gtr V
  |              |               |               |
  /              /               /               /

  Gtr II
                                 >
|-------------|---------------|---------------|----------------|
|-------------|---------------|---------------|----------------|
|-7-----------|-(7)-----------|-(7)-----------|-(7)------------|
|-x-----------|---------------|---------------|----------------|
|-5-----------|-(5)-----------|-(5)-----------|-(5)------------|
|-------------|---------------|---------------|----------------|
|
| Gtr VI
|-------------|---------------|---------------|----------------|
|-------------|---------------|---------------|----------------|
|-------------|---------------|---------------|----------------|
|-------4-----|------4-----4--|---------2-----|------2-----2---|
|-2--2-----2--|--2------2-----|--0---0-----0--|--0------0------|
|-------------|---------------|---------------|----------------|


  C5
  Gtr V
  |             |             |             |
  /             /             /             /

  Gtr VI
|-------------|-------------|-------------|--------------|
|-------------|-------------|-------------|--------------|
|-------------|-------------|-------------|--------------|
|-------------|-------------|-------------|--------------|
|-------5-----|----5-----5--|-------5-----|----5-----5---|
|-2--2-----2--|-2-----2-----|-3--3-----3--|-3-----3------|


                                       G/B
    |                   |                |                |
    /                   /                /                /

  Gtr I
|-------------------|----------------|----------------|-----------------|
|-------------------|----------------|----------------|-----------------|
|-------------------|----------------|----------------|-----------------|
|-<12>--(12)--------|-(12)-----------|-(12)-----------|-(12)------------|
|-------------------|----------------|----------------|-----------------|
|-------------------|----------------|----------------|-----------------|
|
| Gtr VI
|-------------------|----------------|----------------|-----------------|
|-------------------|----------------|----------------|-----------------|
|-------------------|----------------|----------------|-----------------|
|-------------4-----|-------4-----4--|----------2-----|-------2-----2---|
|---2-----2------2--|---2------2-----|---0---0-----0--|---0------0------|
|-------------------|----------------|----------------|-----------------|


  C5
  |                |               |               |
  /                /               /               /

|---------------|---------------|---------------|----------------|
|---------------|---------------|---------------|----------------|
|-2-------------|---------------|---------------|----------------|
|-------(0)-----|------0--------|-(0)-----------|-(0)------------|
|------------4--|-(4)-----------|---------------|----------------|
|---------------|---------------|---------------|----------------|
|
|---------------|---------------|---------------|----------------|
|---------------|---------------|---------------|----------------|
|---------------|---------------|---------------|----------------|
|---------------|---------------|---------------|----------------|
|--------5------|------5-----5--|---------5-----|------5-----5---|
|-2--2-------2--|--2------2-----|--3---3-----3--|--3------3------|


                                G/B
  |              |               |                |
  /              /               /                /
[ Tab from: http://www.guitartabs.cc/tabs/b/blink_182/violence_tab_ver_13.html ]
|-------------|---------------|-----------------|--------------|
|-------------|---------------|-----------------|--------------|
|-2-----------|---------------|-----------------|--------------|
|-------0-----|------0--------|-(0)--------(0)--|-2-----0------|
|----------4--|-(4)-----------|-----------------|--------------|
|-------------|---------------|-----------------|--------------|
|
|-------------|---------------|-----------------|--------------|
|-------------|---------------|-----------------|--------------|
|-------------|---------------|-----------------|--------------|
|-------4-----|------4-----4--|---------2-------|----2-----2---|
|-2--2-----2--|--2------2-----|--0---0------0---|-0-----0------|
|-------------|---------------|-----------------|--------------|


  C5
  |              |               |               |
  /              /               /               /

|-------------|---------------|---------------|----------------|
|-------------|---------------|---------------|----------------|
|-2-----------|---------------|---------------|----------------|
|-------0-----|------0--------|-(0)-----------|-(0)------------|
|----------4--|-(4)-----------|---------------|----------------|
|-------------|---------------|---------------|----------------|
|
|-------------|---------------|---------------|----------------|
|-------------|---------------|---------------|----------------|
|-------------|---------------|---------------|----------------|
|-------------|---------------|---------------|----------------|
|-------5-----|------5-----5--|---------5-----|------5-----5---|
|-2--2-----2--|--2------2-----|--3---3-----3--|--3------3------|


                                G/B
  |              |               |               |
  /              /               /               /

|-------------|---------------|---------------|----------------|
|-------------|---------------|---------------|----------------|
|-2-----------|---------------|---------------|----------------|
|-------0-----|------0--------|-(0)-----------|-(0)------------|
|----------4--|-(4)-----------|---------------|----------------|
|-------------|---------------|---------------|----------------|
|
|-------------|---------------|---------------|----------------|
|-------------|---------------|---------------|----------------|
|-------------|---------------|---------------|----------------|
|-------4-----|------4-----4--|---------2-----|------2-----2---|
|-2--2-----2--|--2------2-----|--0---0-----0--|--0------0------|
|-------------|---------------|---------------|----------------|


  C5
    |                   |                |                |
    /                   /                /                /

|-------------------|----------------|----------------|-----------------|
|-------------------|----------------|----------------|-----------------|
|-------------------|----------------|----------------|-----------------|
|-<12>--(12)--------|-(12)-----------|-(12)-----------|-(12)------------|
|-------------------|----------------|----------------|-----------------|
|-------------------|----------------|----------------|-----------------|
|
|-------------------|----------------|----------------|-----------------|
|-------------------|----------------|----------------|-----------------|
|-------------------|----------------|----------------|-----------------|
|-------------------|----------------|----------------|-----------------|
|-------------5-----|-------5-----5--|----------5-----|-------5-----5---|
|---2-----2------2--|---2------2-----|---3---3-----3--|---3------3------|


                                    G/B
  |                |                 |               |
  /                /                 /               /

|---------------|-----------------|---------------|----------------|
|---------------|-----------------|---------------|----------------|
|-2-------------|-----------------|---------------|----------------|
|-------0-------|------(0)--------|-(0)-----------|-(0)------------|
|----------(4)--|-(4)-------------|---------------|----------------|
|---------------|-----------------|---------------|----------------|
|
|---------------|-----------------|---------------|----------------|
|---------------|-----------------|---------------|----------------|
|---------------|-----------------|---------------|----------------|
|-------4-------|-------4------4--|---------2-----|------2-----2---|
|-2--2------2---|--2--------2-----|--0---0-----0--|--0------0------|
|---------------|-----------------|---------------|----------------|


  C5
   |                   |                 |                 |
   /                   /                 /                 /

|-------------------|-----------------|-----------------|------------------|
|-------------------|-----------------|-----------------|------------------|
|-(2)---------------|-----------------|-----------------|------------------|
|---------(0)-------|------(0)--------|-(0)-------------|-(4)--------------|
|--------------(4)--|-(4)-------------|------------(5)--|---------(5)------|
|-------------------|-----------------|-----------------|------------------|
|
|-------------------|-----------------|-----------------|------------------|
|-------------------|-----------------|-----------------|------------------|
|-------------------|-----------------|-----------------|------------------|
|-------------------|-----------------|-----------------|------------------|
|----------5--------|-------5------5--|---------5-------|------5-------5---|
|--2---2--------2---|--2--------2-----|--3---3------3---|--3-------3-------|


  |            |             |            |
  /            /             /            /

|-----------|-------------|------------|--------||
|-----------|-------------|------------|--------||
|-2---------|-------------|------------|--------||
|-----------|------0------|-(0)--------|-(0)----||
|--------4--|-(4)---------|------------|--------||
|-----------|-------------|------------|--------||


   Chorus
    D5/A                             E
    Gtr III
||-----------------|---------------|----------------|---------------|
||o----------------|---------------|----------------|---------------|
||--7--7-7-(7)--7--|-7-7-7--7------|-9--9-9-(9)--9--|-9-9-9--9------|
||--x--x-x------x--|-x-x-x--x------|-x--x-x------x--|-x-x-x--x------|
||o-5--5-5-(5)--5--|-5-5-5--5--0-0-|-7--7-7-(7)--7--|-7-7-7--7--0-0-|
||-----------------|---------------|----------------|---------------|
|
|   Gtr II
||-----------------|---------------|----------------|---------------|
||o----------------|---------------|----------------|---------------|
||--7--7-7-(7)--7--|-7-7-7--7--7---|-7--7-7-(7)--7--|-7-7-7--7--7---|
||--x--x-x------x--|-x-x-x--x--x---|-x--x-x------x--|-x-x-x--x--x---|
||o-5--5-5-(5)--5--|-5-5-5--5--5---|-5--5-5-(5)--5--|-5-5-5--5--5---|
||--5--5-5-(5)--5--|-5-5-5--5--5---|-5--5-5-(5)--5--|-5-5-5--5--5---|


  Bm                               A/C#
                                                                    4x
|----------------|---------------|----------------|-----------------||
|----------------|---------------|----------------|----------------o||
|-4--4-4-(4)--4--|-4-4-4--4------|-6--6-6-(6)--6--|-6-6-6--6--------||
|-x--x-x------x--|-x-x-x--x------|-x--x-x------x--|-x-x-x--x--------||
|-2--2-2-(2)--2--|-2-2-2--2--0-0-|-4--4-4-(4)--4--|-4-4-4--4--0-0--o||
|----------------|---------------|----------------|-----------------||
|
|                                                                   4x
|----------------|---------------|----------------|-----------------||
|----------------|---------------|----------------|----------------o||
|-7--7-7-(7)--7--|-7-7-7--7--7---|-7--7-7-(7)--7--|-7-7-7--7--7-----||
|-x--x-x------x--|-x-x-x--x--x---|-x--x-x------x--|-x-x-x--x--x-----||
|-5--5-5-(5)--5--|-5-5-5--5--5---|-5--5-5-(5)--5--|-5-5-5--5--5----o||
|-5--5-5-(5)--5--|-5-5-5--5--5---|-5--5-5-(5)--5--|-5-5-5--5--5-----||


 Outro
  N.C.
  Gtr I
|---------------------------------|------------------------------|
|---------------------------------|------------------------------|
|---------------------------------|------------------------------|
|---------------------------------|------------------------------|
|-5b6r(5)-5b6r5-(5)b6r(5)-5b6r(5)-|--5b6r5-5b6r(5)-5b6r(5)-5b6r5-|
|---------------------------------|------------------------------|
|
| Gtr II
|---------------------------------|------------------------------|
|---------------------------------|------------------------------|
|-7-------------------------------|-(7)--------------------------|
|-x-------------------------------|------------------------------|
|-5-------------------------------|-(5)--------------------------|
|---------------------------------|------------------------------|


|----------------------------------|-------------------------------|
|----------------------------------|-------------------------------|
|----------------------------------|-------------------------------|
|----------------------------------|-------------------------------|
|--5b6r(5)-5b6r5-(5)b6r(5)-5b6r(5)-|--5b6r5-5b6r(5)-5b6r(5)-5b6r5--|
|----------------------------------|-------------------------------|
|
|  >
|----------------------------------|-------------------------------|
|----------------------------------|-------------------------------|
|-(7)------------------------------|-(7)---------------------------|
|----------------------------------|-------------------------------|
|-(5)------------------------------|-(5)---------------------------|
|----------------------------------|-------------------------------|


|---------------------------------|-----------------------------|
|---------------------------------|-----------------------------|
|---------------------------------|-----------------------------|
|---------------------------------|-----------------------------|
|-5b6r(5)-5b6r5-(5)b6r(5)-5b6r(5)-|-5b6r5-5b6r(5)-5b6r(5)-5b6r5-|
|---------------------------------|-----------------------------|


|---------------------------------|------------------------------|
|---------------------------------|------------------------------|
|---------------------------------|------------------------------|
|---------------------------------|------------------------------|
|-5b6r(5)-5b6r5-(5)b6r(5)-5b6r(5)-|-5b6r5-5b6r(5)-5b6r(5)-5b6r5--|
|---------------------------------|------------------------------|


|-------------------------------------------|--------------------------------|
|-------------------------------------------|--------------------------------|
|-------------------------------------------|--------------------------------|
|-------------------------------------------|--------------------------------|
|-------------------------------------------|--------------------------------|
|-10b11r(10)-10b11r10-(10)b11r(10)-9b10r(9)-|-9b10r9-9b10r(9)-9b10r(9)-8b9r8-|


|---------------------------------|------------------------------|
|---------------------------------|------------------------------|
|---------------------------------|------------------------------|
|---------------------------------|------------------------------|
|---------------------------------|------------------------------|
|-8b9r(8)-8b9r8-(8)b9r(8)-7b8r(7)-|-7b8r7-7b8r(7)-7b8r(7)-6b7r6--|


|---------------------------------|
|---------------------------------|
|---------------------------------|
|---------------------------------|
|---------------------------------|
|-6b7r(6)-6b7r6-(6)b7r(6)-5b6r(5)-|


|-----------------------------|----------|-------*|
|-----------------------------|----------|-------*|
|-----------------------------|----------|-------*|
|-----------------------------|----------|-------*|
|-----------------------------|----------|-------*|
|-5b6r5-5b6r(5)-5b6r(5)-5b6r5-|-4s=======|=2\----*|


Tablature Legend
----------------
 h   - hammer-on
 p   - pull-off
 b   - bend
 pb  - pre-bend
 r   - bend release (if no number after the r, then release immediately)
 /\  - slide into or out of (from/to "nowhere")
 s   - legato slide
 S   - shift slide
  - natural harmonic
[n]  - artificial harmonic
n(n) - tapped harmonic
 ~   - vibrato
 tr  - trill
 T   - tap
 TP  - trem. picking
 PM  - palm muting
\n/  - tremolo bar dip; n = amount to dip
 \n  - tremolo bar down
 n/  - tremolo bar up
/n\  - tremolo bar inverted dip
 =   - hold bend; also acts as connecting device for hammers/pulls
 <>  - volume swell (louder/softer)
 x   - on rhythm slash represents muted slash
 o   - on rhythm slash represents single note slash

Misc Legend
-----------
 |  - bar
||  - double bar
||o - repeat start
o|| - repeat end
*|  - double bar (ending)
 :  - bar (freetime)
 $  - Segno
 &  - Coda
Tempo markers -  = BPM(8/16=s8/s16), where s8 = swing 8ths, s16 = swing 16ths
Comments