Blink 182 - Violence Chords & Tabs

 

Violence Chords & Tabs

Blink 182 Chords & Tabs

Version: 12 Type: Tab 0 ratings
1 star 2 stars 3 stars 4 stars 5 stars
comments

Violence Tab

Artist - Blink 182
Song - Violence
Cd - Blink 182

standard tuning
o and if it comes out distorted copy and paste into wordpad :)
|-------------------|
|-------------------|
|--5-5-5-5-5-5-5----| right here you just bend the strings...listen to the song to get it
|--5-5-5-5-5-5-5----|
|--3-3-3-3-3-3-3----| repeat as needed
|-------------------|

|-------------------------------------------------------------------------------------------------|
|-------------------------------------------------------------------------------------------------|
|-------------------------------------------------------------------------------------------------|
|--9-9-9-9-9-9-9-9-9-9---10-10-10-10-10-10-10-10-10-10--9-9-9-9-9-9-9-9-9-9--8-8-8-8-8-8-8-8-8-8--|
|--9-9-9-9-9-9-9-9-9-9---10-10-10-10-10-10-10-10-10-10--9-9-9-9-9-9-9-9-9-9--6-6-6-6-6-6-6-6-6-6--|
|--7-7-7-7-7-7-7-7-7-7---9-9-9-9-9-9-9-9-9-9--7-7-7-7-7-7-7-7-7-7--6-6-6-6-6-6-6-6-6-6------------| x2

wait till singing ends then....

|-------------------------------------------------------------------------------------------------|
|-------------------------------------------------------------------------------------------------|
|-------------------------------------------------------------------------------------------------|
|--9-9-9-9-9-9-9-9-9-9--10-10-10-10-10-10-10-10-10-10--9-9-9-9-9-9-9-9-9-9--8-8-8-8-8-8-8-8-8-8---|
|--9-9-9-9-9-9-9-9-9-9--10-10-10-10-10-10-10-10-10-10--9-9-9-9-9-9-9-9-9-9--6-6-6-6-6-6-6-6-6-6---|
|--7-7-7-7-7-7-7-7-7-7--9-9-9-9-9-9-9-9-9-9--7-7-7-7-7-7-7-7-7-7--6-6-6-6-6-6-6-6-6-6-------------| x2

again...singing..haha u can snap to make it sound real.....
[ Tab from: http://www.guitartabs.cc/tabs/b/blink_182/violence_tab_ver_12.html ]
|-------------------------------------------------------------------------------------------------|
|-------------------------------------------------------------------------------------------------|
|-------------------------------------------------------------------------------------------------|
|--9-9-9-9-9-9-9-9-9-9--10-10-10-10-10-10-10-10-10-10---9-9-9-9-9-9-9-9-9-9--8-8-8-8-8-8-8-8-8-8--|
|--9-9-9-9-9-9-9-9-9-9--10-10-10-10-10-10-10-10-10-10---9-9-9-9-9-9-9-9-9-9--8-8-8-8-8-8-8-8-8-8--|
|--7-7-7-7-7-7-7-7-7-7--9-9-9-9-9-9-9-9-9-9--7-7-7-7-7-7-7-7-7-7--6-6-6-6-6-6-6-6-6-6-------------| x2
 
|-------------------------------------------------------------------------------------------------|
|-------------------------------------------------------------------------------------------------|
|-------------------------------------------------------------------------------------------------|
|------9-----9-----9------10----10----10------9-----9------9------8-----8-----8-------------------|
|----9-----9-----9-----10----10----10-------9------9-----9------8-----8-----8---------------------|
|--7-----7------------9-----9---------------7-----7-------------6-----6---------------------------| x6

|----------------------------------------------------------------------------------------------------|
|----------------------------------------------------------------------------------------------------|
|----------------------------------------------------------------------------------------------------|
|--9-9-9-9-9-9-9-9-9-9---10-10-10-10-10-10-10-10-10-10---9-9-9-9-9-9-9-9-9-9--8-8-8-8-8-8-8-8-8-8----|
|--9-9-9-9-9-9-9-9-9-9---10-10-10-10-10-10-10-10-10-10---9-9-9-9-9-9-9-9-9-9--6-6-6-6-6-6-6-6-6-6----|
|--7-7-7-7-7-7-7-7-7-7----9--9---9--9---9--9--9---9--9--9---7-7-7-7-7-7-7-7-7-7--6-6-6-6-6-6-6-6-6-6-| x4

|-------------------|
|-------------------|
|--5-5-5-5-5-5-5----| 
|--5-5-5-5-5-5-5----|
|--3-3-3-3-3-3-3----| 
|-------------------|
...right here it slows down but if u insist on playing the then just slide closer to
the head and play slower....hope its good!

tabbed by andrew

BLINK 182 rocks! i didnt make up this song..im not that good haha! give them credit
buy the cd!
Comments