Blink 182 - Violence Chords & Tabs

 

Violence Chords & Tabs

Blink 182 Chords & Tabs

Version: 1 Type: Tab 0 ratings
1 star 2 stars 3 stars 4 stars 5 stars
comments

Violence Tab

Violence
*=Pull String
G=Let String Down
Intro pt. 1
1---------------------------------------------------
2---------------------------------------------------
3---------------------------------------------------
4---------------------------------------------------
5---2-2-2*-2*G--2*G--2*G--2*G-----------------------
6---------------------------------------------------  X4
Intro pt. 2
1---------------------------------------------------
2---------------------------------------------------
3---4-4-4-4-4---------------------------------------
4---x-x-x-x-x---------------------------------------
5---2-2-2-2-2--2-2-2*-2*G-2*G-2*G-2*G---------------
6---------------------------------------------------  X2
[ Tab from: http://www.guitartabs.cc/tabs/b/blink_182/violence_tab.html ]
Chorus
1----------------------------------------------------
2----------------------------------------------------
3---4-4-4-4-4-4-4-4-4-4-4-4--6-6-6-6-6-6-6-6-6-6-6-6-
4---x-x-x-x-x-x-x-x-x-x-x-x--x-x-x-x-x-x-x-x-x-x-x-x-
5---2-2-2-2-2-2-2-2-2-2-2-2--4-4-4-4-4-4-4-4-4-4-4-4-
6----------------------------------------------------
1----------------------------------------------------
2----------------------------------------------------
3----------------------------------------------------
4---6-6-6-6-6-6-6-6-6-6-6-6--8-8-8-8-8-8-8-8-8-8-8-8-
5---x-x-x-x-x-x-x-x-x-x-x-x--x-x-x-x-x-x-x-x-x-x-x-x-
6---4-4-4-4-4-4-4-4-4-4-4-4--6-6-6-6-6-6-6-6-6-6-6-6- X2
Both of these sets(in the chorus) are just 1 piece.
So You Play both 2 times.
Verse
1---------------------------------------------------
2---------------------------------------------------
3---------------------------------------------------
4---------------------------------------------------
5---------------------------------------------------
6---------------------------------------------------
Bridge
1---------------------------------------------------
2---------------------------------------------------
3---8~----------8~------------8~-----------8~-------
4---8~----------8~------------8~-----------8~-------
5---6~----------6~------------6~-----------6~-------
6---------------------------------------------------
End
1-----------------------------------------------------------------
2-----------------------------------------------------------------
3-----------------------------------------------------------------
4-----------------------------------------------------------------
5---2-2-2-1-------------------------------------------------------
6-----------5-5*G-5*G-5*G-4-4-4-3*G-3*G-3*G-2-2-2-1*G-1*G-0-------
Intro pt.1
Intro pt.2
Chorus
Verse
Chorus
Verse
Chorus
Bridge
Chorus
Chorus
Intro pt.1
End
Comments