Blink 182 - Violence Chords & Tabs

 

Violence Chords & Tabs

Blink 182 Chords & Tabs

Version: 3 Type: Bass Tab 0 ratings
1 star 2 stars 3 stars 4 stars 5 stars
comments

Violence Bass Tab

I've read several of these Violence tabs and I'm really getting sort of annoyed at how
many go wrong and are confusing. I ended up playing this by ear, and I'm about 98% sure
this is right.

This in the order it's played.

Intro: play the first 2-22-22 at 0:24 and the second at 0:32
G|-----------------------------------|
D|-----------------------------------|
A|------2-22-22---------------2-22-22|
E|-----------------------------------|

Chorus x2: begin at 0:40
G|------------------------------------------------------|
D|------------------------------------------------------|
A|2-22-22-2222-4-44-44-4444----------------------------|
E|----------------------------4-44-44-4444-6-66-66-6666|

Verse: begin at 1:00, next at 1:04, next at 1:08, etc
(play very faintly, first two notes long, last one staccato)
G|--------------|
D|------1~~~~~--|
A|2~~~~~-------1|
E|--------------|
[ Tab from: http://www.guitartabs.cc/tabs/b/blink_182/violence_btab_ver_3.html ]
Chorus x2: begin at 01:18
G|------------------------------------------------------|
D|------------------------------------------------------|
A|2-22-22-2222-4-44-44-4444----------------------------|
E|----------------------------4-44-44-4444-6-66-66-6666|

Verse: begin at 01:38, next at 01:42, etc etc.
G|--------------|
D|------1~~~~~--|
A|2~~~~~-------1|
E|--------------|

Chorus x2: begin at 01:57
G|------------------------------------------------------|
D|------------------------------------------------------|
A|2-22-22-2222-4-44-44-4444----------------------------|
E|----------------------------4-44-44-4444-6-66-66-6666|

Bridge x1: begin at 02:13
G|----4----4----6---6--------------------|
D|------------------------6-----6---2---2|
A|---22---22---44---44-------------------|
E|---------------------44----44---00--00-|

Chorus x3: begin at 02:57
G|------------------------------------------------------|
D|------------------------------------------------------|
A|2-22-22-2222-4-44-44-4444----------------------------|
E|----------------------------4-44-44-4444-6-66-66-6666|



Chorus x1: directly after last chorus shown above
G|----------------------------------------------------------|
D|----------------------------------------------------------|
A|2-22-22-2222-4-44-44-4444--------------------------------|
E|----------------------------4-44-44-4444-6-66-66-6666~~~~|
Comments