Blink 182 - Violence Chords & Tabs

 

Violence Chords & Tabs

Blink 182 Chords & Tabs

Version: 2 Type: Bass Tab 0 ratings
1 star 2 stars 3 stars 4 stars 5 stars
comments

Violence Bass Tab

   
Tabbed by Jorge_Martinez
Violence
Blink 182


E A D G

Intro 
-------------
-------------
2-2222-2-2222
-------------

Chorus/pre-verse 
--------------------------------
--------------------------------
2222222-44444444----------------
----------------44444444-6666666
[ Tab from: http://www.guitartabs.cc/tabs/b/blink_182/violence_btab_ver_2.html ]
Verse (so easy ah!)
-------------------------------|--
----------------1--------------|--       *=let the note ring them play chorus
2-----------------------1------|-2*
-------------------------------|--

bridge ( maybe he puts some 8ths)
-----4----4----6---6------------------
------------------------6-----6---2---2
---22---22---44---44-------------------
---------------------44----44---00--00-


BAH! i had to wait for the album of blink and the songs are so easy and they're
not the same well i had to wait for another (they could play better in this cd
and stop to use the f***ing keyboard)well se ya later i'm going to write miss
you another blink tab
Comments