Blink 182 - Untitled Chords & Tabs

 

Untitled Chords & Tabs

Blink 182 Chords & Tabs

Version: 2 Type: Tab 0 ratings
1 star 2 stars 3 stars 4 stars 5 stars
comments

Untitled Tab

   
Song  : Untitled
Artist: Blink 182
Album : Dude Ranch
Tabbed by: Herland
  
Play this one time before singing beginns. 
e---------------------------------------------------------
b--------------------------------------------------------- 
g-44444-4444444---------------44444-4444444---------------
d-44444-4444444-22222-4444444-44444-4444444-22222-4444444-
a-22222-2222222-22222-4444444-22222-2222222-22222-4444444-
e---------------00000-2222222---------------00000-2222222-
 I think of a while ago, we might have had it all
 I was so stupid then, you needed time to grow
 But now just as things change, as well my fellings do
 In time things rearange, I am so sick of chasing...
 
 Play all the chords that are being slided to
e---------------------------------------------------------
b---------------------------------------------------------
g-8-8/9-9\4-4/6-6/8-8/9-9\4-4/6-4-------------------------
d-8-8/9-9\4-4/6-6/8-8/9-9\4-4/6-4-------------------------
a-6-6/7-7\2-2/4-4/6-6/7-7\2-2/4-2-------------------------
e---------------------------------------------------------
  You, but what do I get 'cause I just seem to loose
  You make me regret those times I spent with you
  And playing those games, as I wait for your call
  And now I give up so goodbye, and solong

Play this part twice
e---------------------------------------------------------
b---------------------------------------------------------
g-4444444-----------------999-888-------------------------
d-4444444-6666666-4444444-999-888-------------------------
a-2222222-6666666-4444444-777-666-------------------------
e---------4444444-2222222---------------------------------
   
e---------------------------------------------------------
b---------------------------------------------------------
g-4444444444444444----------------------------------------
d-4444444444444444-22222222-44444444----------------------
a-2222222222222222-22222222-44444444----------------------
e------------------00000000-22222222----------------------
  It's not a change of pace, this time I'll get it right
  It's not a change of taste, I was the one there last night
  You had your other friends, they were there when you cried
  Didn't mean to hurt you then
  Best friends just won't leave your side
[ Tab from: http://www.guitartabs.cc/tabs/b/blink_182/untitled_tab_ver_2.html ]
e---------------------------------------------------------
b---------------------------------------------------------
g-----------------------------------4444444444444444------
d-6666666666666666-2222222222222222-4444444444444444------
a-6666666666666666-2222222222222222-2222222222222222------
e-4444444444444444-0000000000000000-----------------------
                                       
e------------------ ------------------
b---1st time------- ---2nd time-------
g------------------ ------------------
d-4444444444444444- 44444444-22222222-
a-4444444444444444- 44444444-22222222-
e-2222222222222222- 22222222-00000000-
  But what do I get 'cause I just seem to loose
  You make me regret those times I spent with you
  And playing those games as I wait for your call
  And now I give up so good bye and solong

Interlude: Palm muted
e----------------------------------------------------
b----------------------------------------------------
g-------------------------- 4 times -----------------
d---1-4---2-1---1-4---2-1--         -----------------
a-2-----2-----------2--------------------------------
e-------------2--------------------------------------

e----------------------------------------------------
b----------------------------------------------------
g----------------------------------------------------
d-99999999999999999999999999999999999999999999999999-
a-xxxxxxxxxxxxxxxxxxxxxxxxxxxxxxxxxxxxxxxxxxxxxxxxxx-
e-77777777777777777777777777777777777777777777777777-
  It's not a change of pace
  This time I'll get it right
  It's not a change of taste
e---
b---
g-9- I was the one there last night
d-9-
a-7-
e---

Play this twice
e-----------------------------------------------------
b-----------------------------------------------------
g-----------------------------------4444444444444444--
d-6666666666666666-2222222222222222-4444444444444444--
a-6666666666666666-2222222222222222-2222222222222222--
e-4444444444444444-0000000000000000-------------------

e------------------ ----------------------------------
b---1st time ------ ----2nd time(ending)couple of times
g------------------ -8888888888888888-6666666666666666
d-4444444444444444- -8888888888888888-6666666666666666
a-4444444444444444- -6666666666666666-4444444444444444
e-2222222222222222- ----------------------------------
  When I needed you most when I needed a friend
  You let me down now like I let you down then
  So sorry It's over (aaaaaaaa)
Ends on g-4
        d-4
        a-2

 On live shows,Tom plays the ending like this
e----------------------------------------------------
b-----------------------------------------ends on----
g-999-8-6-4-444-6--999-8-6-4-4444---------4444-4-----
d-xxx-x-x-x-xxx-x--xxx-x-x-x-xxxx-3,5x    xxxx-4-----
a-777-6-4-2-222-4--777-6-4-2-2222---------2222-2-----
e----------------------------------------------------
 Love this song. Blink 182 Rocks!
Comments