Blink 182 - Untitled Chords & Tabs

 

Untitled Chords & Tabs

Blink 182 Chords & Tabs

Version: 1 Type: Tab 0 ratings
1 star 2 stars 3 stars 4 stars 5 stars
comments

Untitled Tab

These is very easy though you need rythm

e--------------------------------------------------------------
B-------------------------------------------------------------
G-------------------------------------------------------------
D-------------------------------------------------------------
A--------------------------------------------------------------
E----7-7-7-7-7---7-7-7-7-7-7---0-0-0-0-0-0--2-2-2-2-2 
[ Tab from: http://www.guitartabs.cc/tabs/b/blink_182/untitled_tab.html ]
e---------------0---0---------------------------|-----------------
B--------------0----0--------------------------|---------------
G--------------1----1-----4--4-------3---3--.|--------------------
D----6---6----2----2-----4--4-------4---4--.|------------------------
A----6---6----2----2-----2--2-------4---4---|------------------------
E----4---4----------------------------2---2---|----------------

Questions or doubts:patunox@hotmail.com
well you know blink rocks
Comments