Blink 182 - Untitled Chords & Tabs

 

Untitled Chords & Tabs

Blink 182 Chords & Tabs

Version: 3 Type: Bass Tab 0 ratings
1 star 2 stars 3 stars 4 stars 5 stars
comments

Untitled Bass Tab

~ = let ring (you should know that by now...but just incase you're a newbie)

"Untitled" by Blink 182

Intro/ first verse:
G|--------------------------------|
D|--------------------------------|
A|-22222--2222222-----------------|
E|----------------00000--2222222--|   x6


Chorus:
G|-----------------------------------------------------|
D|-----------------------------------------------------|
A|-----------7~-----7-7---2~-----2-2-------------------|
E|-4~---4-4------------------------------2~---2-2------|

G|------------------------------------------------------|
D|------------------------------------------------------|
A|-----------7~-----7-7---2~-----2-2----------7~----2~--|
E|-4~---4-4------------------------------2~-------------|

:::Guitar Part:::

Verse 2
G|-------------------|
D|-------------------|
A|-22222222----------|
E|---------00002222--|   x4


Second Chorus
G|---------------------------------------------------------|
D|---------------------------------------------------------|
A|---------7-6-777777--7-6-222222-7-6---------7-6----------|
E|-444444-----------------------------222222---------------|
[ Tab from: http://www.guitartabs.cc/tabs/b/blink_182/untitled_btab_ver_3.html ]
G|-----------------------------------------------------------|
D|-----------------------------------------------------------|
A|---------7-6-777777--7-6-222222-7-6-------7777-2-----------|
E|-444444------------------------------2222------------------|

To me, it sounds like Mark is hitting extra notes between the root notes
(Ab, E, B, Db)...if you don't feel comfortable playing the E and Eb portion of
the song, then you can just skip it...and even if I'm wrong, it's still better
to play and jazzes up the song a bit.


Bridge:
G|-------------------|
D|-------------------|
A|-22222222----------|
E|---------00002222--|   x8 and you'll hear Mark strumming

Interlude 1:
G|---------------------------------|
D|---------------------------------|
A|-22222222----------22222222------|
E|---------00002222-----------0----|


Interlude 2:
G|---------------------------------------------------------|
D|---------------------------------------------------------|
A|-----------7-6-777777777--7-6-22222222-7-6----------7-6--|
E|-44444444----------------------------------22222222------|

G|-----------------------------------------------|
D|-----------------------------------------------|
A|-----------7-6-777777777--22222222-------------|
E|-44444444---------------------------22222222---|


Outro:
G|-----------------------------------------------|
D|-----------------------------------------------|
A|-----------777777777--22222222-----------------|
E|-44444444------------------------22222222------| x2


Happy jamming...
Comments