Blink 182 - Tv Chords & Tabs

 

Tv Chords & Tabs

Blink 182 Chords & Tabs

Version: 5 Type: Tab 0 ratings
1 star 2 stars 3 stars 4 stars 5 stars
comments

Tv Tab

   
-------------------------------------------------------------------------------
			     TV - Blink 182
-------------------------------------------------------------------------------
Tuning: Standard

Intro (bass really, but for guitar)
e|---------------------------------------------------------------------|
B|---------------------------------------------------------------------|
G|---------------------------------------------------------------------|
D|----------------------3-----3---3----------------------3-----3---3---|
A|-----3-----3---3--1-1---1-1---1-------3-----3---3--1-1---1-1---1-----|
E|-1-1---1-1---1--------------------1-1---1-1---1----------------------|

e|---------------------------------------------------------------------------|
B|---------------------------------------------------------------------------|
G|---------------------------------------------------------------------------|
D|---------------------3-----3---3-/-----10-----10---10-\-----3-----3---3----|
A|-----3-----3---3-1-1---1-1---1---/-8-8----8-8----8----\-1-1---1-1---1------|
E|-1-1---1-1---1-------------------------------------------------------------|

Guitar part of intro
e|-------------------------------------------------------------------------|
B|-------------------------------------------------*-distortion -----------|
G|-------------------------------------------------*----on-----------------|
D|---------3-3-3-3---------3-3-3-3---------3-3-3-3---------3-3-3-3---------|
A|-3-3-3-3-1-1-1-1-5-5-5-5-1-1-1-1-3-3-3-3-1-1-1-1-5-5-5-5-1-1-1-1---------|
E|-1-1-1-1---------3-3-3-3---------1-1-1-1---------3-3-3-3-----------------|
[ Tab from: http://www.guitartabs.cc/tabs/b/blink_182/tv_tab_ver_5.html ]
Intro pt 2 (you might have to listen harder to hear this bit)
e|------------------------------------------------------------------------------------|
B|------------------------------------------------------------------------------------|
G|-------------------------------------------------------------55332233553322-3p2-----|
D|-----------------33333-----------22-3-5-22-3-5-22-3-5-22-3-5--------------------3---|
A|-----------11111----------111111----------------------------------------------------|
E|-111111-33-------------33-----------------------------------------------------------|

e|--------------------------------------------------------------|
B|--------------------------------------------------------------|
G|----------------------------------553322335533222-3p2---------|
D|------------------------------------------------------3-------|
A|---------1-1-1-1---------1-1-1-1------------------------------|
E|-1-1-1-1---------1-1-1-1--------------------------------------|

Verse
e|-----------------------|
B|-----------------------|
G|-----------------------| play 4 times
D|-------------3-3-3-3---|
A|-3-3-3-3-x-x-1-1-1-1---|
E|-1-1-1-1-x-x-----------|


Chorus
e|-------------------------|
B|-------------------------|
G|-------------------------| play 8
D|-----------3-----------3-| times
A|-x-x-3-x-x-1-x-x-3-x-x-1-|
E|-x-x-1-x-x---x-x-1-x-x---|

The cool bit
e|----------------------------------------------------------|
B|--------------------------5---------3---------------------|
G|-------5-------5--------6---6-----4---4---5-3-2-----------|play 4 times
D|------------------------------------------------5-4-2-0---|
A|---3-3---3-3-3---3--0-0-----------------------------------|
E|------------------------------3-3-------------------------|
pm   . .   . . .   .  . .       . .    

Ending chord
e|---|
B|---|
G|---|
D|-3~|
A|-3~|
E|-1~|


ORDER
+ Intro 
+ Guitar part of intro
+ Intro pt 2 
  (if you don't believe me that its there just play Guitar part of intro a few times with    distortion)
+ Verse
+ Chorus
+ Verse
+ Chorus
+ The cool bit
+ Intro pt 2
+ Ending note

===============================================================================
Comments