Blink 182 - Tv Chords & Tabs

 

Tv Chords & Tabs

Blink 182 Chords & Tabs

Version: 3 Type: Tab 0 ratings
1 star 2 stars 3 stars 4 stars 5 stars
comments

Tv Tab

   
-----------------------------------------------------------------
			Blink 182 - TV
		      Album: Chesire Cat
            Tabbed by DTMax - dtmax_@hotmail.com
-----------------------------------------------------------------


	INTRO
e|------------------------------------------------------------------|
B|------------------------------------------------------------------|
G|------------------------------------------------------------------|
D|------------------------------------------------------------------|
A|-----3-----3---3-/----8-----8---8-/-----3-----3---3-/-----8---8-8-|
E|-1-1---1-1---1---/-6-6---6-6--6---/-1-1---1-1---1---/-6-6--6-6-6--|

e|-------------------------------------------------------------------|
B|-------------------------------------------------------------------|
G|-------------------------------------------------------------------|
D|-------------------------------------------------------------------|
A|----3----3-3-/----8---8-8-/------15------15---15-/-----8-----8---8-|
E|-1-1--1-1-1--/-6-6-6-6-6--/-13-13---13-13---13---/-6-6---6-6---6---|

	RIFF 1
e|-------------------------------------|
B|-------------------------------------|
G|-------------------------------------|
D|----------------------------------88-|
A|-3333-8888-5555-8888-3333-8888-55-88-|
E|-1111-6666-3333-6666-1111-6666-33-66-|
[ Tab from: http://www.guitartabs.cc/tabs/b/blink_182/tv_tab_ver_3.html ]
	RIFF 2
e|-------------------|
B|-------------------|
G|-------------------|
D|-33333333-88888888-|
A|-33333333-88888888-|
E|-11111111-66666666-|

	RIFF 3
e|---------------------|
B|---------------------|
G|---------------------|
D|-3333-5555-7777-8888-|
A|-3333-5555-7777-8888-|
E|-1111-3333-5555-6666-|

	VERSE
e|---------------------|
B|---------------------|
G|---------------------|
D|-333-3-1-0-888-8-6-5-|
A|-333-------888-------|
E|-111-------666-------|

	CHORUS
e|-------------------------------|
B|-------------------------6-4-3-|
G|-------33333-------33333-------|
D|-33333-33333-55555-33333-------|
A|-33333-11111-55555-11111-------|
E|-11111-------33333-------------|

	SOLO
e|--------------------------------------------------|
B|-----5-----5-----6-9-7-----4-7-5----7-5-0-0-------|
G|--------------------------------------------7-5-0-|
D|--------------------------------------------------|
A|-3-3---3-3---6-6-------0-0-------0-0--------------|
E|--------------------------------------------------|

-----------------------------------------------------------------
			     Breakdown
-----------------------------------------------------------------

INTRO
RIFF 1
RIFF 2 x4
RIFF 3
VERSE x4
CHORUS x4
VERSE x4
CHORUS x4
SOLO x2
RIFF 2 x4
RIFF 3

-----------------------------------------------------------------

And thats the lot. Have fUN.
Comments