Blink 182 - Tv Chords & Tabs

 

Tv Chords & Tabs

Blink 182 Chords & Tabs

Version: 2 Type: Tab 0 ratings
1 star 2 stars 3 stars 4 stars 5 stars
comments

Tv Tab

   
Blink-182
10-TV
Cheshire Cat
Tab by: ToRK
Email at eved05@stdavids.co.za

Chords Used:
   F  A#  Fii  G  
e ----------------  
B ----------------
G --------10------
D -3--7---10---5--
A -3--7---8----5--
E -1--6--------3—-

Key:  *  =  slide to next chord
     
Intro (slide up and down the fretboard where the stars are placed) 
e -------------------------------------------------------------
B -------------------------------------------------------------
G -------------------------------------------------------------
D -----------*------------*-----------*------------*-----------
A -----3---3-*------8---8-*-----3---3-*------8---8-*-----3---3-
E -1-1---1---*--6-6---6---*-1-1---1---*--6-6---6---*-1-1---1---
[ Tab from: http://www.guitartabs.cc/tabs/b/blink_182/tv_tab_ver_2.html ]
e ---------------------------------------------------------------
B ---------------------------------------------------------------
G -------------*------------------333-----333------333-----333---
D -*-----------*-----10---10--333-333-555-333--333-333-555-333---
A -*-----8---8-*-8-8----8-----333-111-555-111--333-111-555-111---
E -*-6-6---6------------------111-----333------111-----333—------

w/distortion if you have it
e ----------------------------------------------------------
B ----------------------------------------------------------
G --------333333--------333333--------333333--------333333--
D -333333-333333-333333-333333-333333-333333-333333-333333--
A -333333-111111-333333-111111-333333-111111-333333-111111--
E -111111--------111111--------111111--------111111---------

e -------------------    
B -------------------
G -------------------
D –3333-5555-7777-8--
A -3333-5555-7777-8--
E -1111-3333-5555-6--

That’s about all I know for now...

Any comments or questions, or help with the rest of the song can be sent to my email.


Later, ToRK    (eved05@stdavids.co.za)

Blink Rule!!
Comments