Blink 182 - Tv Chords & Tabs

 

Tv Chords & Tabs

Blink 182 Chords & Tabs

Version: 1 Type: Tab 1 rating
1 star 2 stars 3 stars 4 stars 5 stars
comments

Tv Tab

   
chord chart

   F G A Bb 

g------2-3
d--3-5-2-3
a--3-5-0-1
e--1-3---5

s=slide p=pull off

intro
e-----------------------------------------------------------------
b-----------------------------------------------------------------
g-----------------------------------------------------------------       
d--------------------3-----3-------------------------3-----3------
a------3----3----1-1---1-1---1-1-----3-----3-----1-1---1-1---1-1--
E--1-1--1-1--1-1-----------------1-1---1-1---1-1------------------

                                 
e-----------------------------------------------------------------
b-----------------------------------------------------------------
g-----------------------------------------------------------------
d----------------------3-----3--------10----10---------3-----3----
a------3-----3-----1-1---1-1---1-1s8-8---8-8---8-8s1-1---1-1---1-1
E--1-1---1-1---1-1------------------------------------------------

faster

   F F F F Bb Bb Bb Bb G G G G Bb Bb Bb Bb F F F F Bb Bb Bb Bb
e-----------------------------------------------------------------
b-----------------------------------------------------------------
g-----------------------------------------------------------------
d-----------------------------------------------------------------
a-----------------------------------------------------------------
E-----------------------------------------------------------------


heavy downstrokes on the 1st 4 notes,slower
[ Tab from: http://www.guitartabs.cc/tabs/b/blink_182/tv_tab.html ]
   G G Bb Bb F F F F F F F Bb Bb Bb Bb Bb Bb Bb (x4)
e-----------------------------------------------------------------
b-----------------------------------------------------------------
g-----------------------------------------------------------------
d-----------------------------------------------------------------
a-----------------------------------------------------------------
e-----------------------------------------------------------------


   F F F F G G G G A A A A Bb Bb Bb Bb
e-----------------------------------------------------------------
b-----------------------------------------------------------------
g-----------------------------------------------------------------
d-----------------------------------------------------------------
a-----------------------------------------------------------------
e-----------------------------------------------------------------

verses
 
   F F F       Bb Bb Bb
e-----------------------------------------------------------------
b-----------------------------------------------------------------
g--------3p2p0----------3p2p0------------------------------------- x3
d-----------------------------------------------------------------
a-----------------------------------------------------------------
e-----------------------------------------------------------------

chorus

F F F Bb Bb Bb G G G Bb Bb Bb(x4)

sorry i dont know the solo
Comments