Blink 182 - Track 15 Chords & Tabs

 

Track 15 Chords & Tabs

Blink 182 Chords & Tabs

Version: 1 Type: Tab 0 ratings
1 star 2 stars 3 stars 4 stars 5 stars
comments

Track 15 Tab

   
Author/Artist: Blink 182 
Title: Track 15 
Album: Take Off Your Pants and Jacket 
Transcribed by: Stef Paschek 
Email: stef_the_sniper@hotmail.com 

---------||-2-----0-----2-----0------------------------------|---------------- 
---------||---3-----3-----3-----3----3-----3/5---2-----2-3---|---------------- 
---------||-2-----2-----2-----2--------0-----------2---------|-x4------------- 
---------||--------------------------0-----0-----2-----2-----|---------------- 
---------||--------------------------------------------------|---------------- 
---------||--------------------------------------------------|---------------- 
 RIFF 1      D   Dsus2   D   Dsus2    G           A                            
[ Tab from: http://www.guitartabs.cc/tabs/b/blink_182/track_15_tab.html ]
---------||-----|------|-----|-------------------|-----|---------------------- 
---------||-3---|------|-3---|-------------------|-2---|-----2---------------- 
---------||---2-|-x4---|---2-|-x4----------------|---2-|-x4------------------- 
---------||-0---|------|-2---|-------------------|-0---|-----0---------------- 
---------||-----|------|-----|-------------------|-----|---------------------- 
---------||-----|------|-----|-------------------|-----|---------------------- 
 RIFF 2   |-------REPEAT x3-------|  Then Play :                               

-----------------------------------------------------------------------|---|-- 
-----------------------------------------------------------------------|-3-|-- 
-----------------------------------------------------------------------|---|-- 
-----------------------------------------------------------------------|-0-|-- 
-----------------------------------------------------------------------|---|-- 
-----------------------------------------------------------------------|---|-- 
 The song goes RIFF 1, RIFF 2, RIFF 1, RIFF 2, then the final note is:         


Comments